Guitaretab - guitar tabs
Song name
# A B C D E F G H I J K L M N O P Q R S T U V W X Y Z

B2k - Bump Bump Bump tab

-------------------------------------------------------------------------------
Bump, Bump, Bump  B2K
-------------------------------------------------------------------------------

Tabbed by: string_liznerz
Email:stringlizner@aol.com
 
Intro

e|-4---6-7-6--6-7-6--3-5---4---6-7-6--6-7-6--3-5-----------------------------|
B|-4-----------------------4-------------------------------------------------|
G|-4-----------------------4-------------------------------------------------|
D|-6-----------------------6-------------------------------------------------|
A|-6-----------------------6-------------------------------------------------|
E|-4-----------------------4-------------------------------------------------|
[ Tab from: http://www.guitaretab.com/b/b2k/32583.html ]
e|-4-----------------------4--------------------------x----------------------|
B|-5---4-5-4--4-5-4--------5---4-5-4--4-5-4-----------8----------------------|
G|-6-----------------4-6---6-----------------4--------8----------------------|
D|-6-----------------------6--------------------------8----------------------|
A|-4-----------------------4--------------------------6----------------------|
E|---------------------------------------------------------------------------|

Verse

e|-4--6-7-6--3-5---4--6-7-6--3-5---4---------------4-------------x-----------|
B|-4---------------4---------------5--4-5-4--------5--4-5-4------8-----------|
G|-4---------------4---------------6---------4-6---6--------4----8-----------|
D|-6---------------6---------------6---------------6-------------8-----------|
A|-6---------------6---------------4---------------4-------------6-----------|
E|-4---------------4---------------------------------------------------------|

Chorus

e|-4--6-7-6--3-5---4--6-7-6--3-5---4---------------4-------------x-----------|
B|-4---------------4---------------5--4-5-4--------5--4-5-4------8-----------|
G|-4---------------4---------------6---------4-6---6--------4----8-----------|
D|-6---------------6---------------6---------------6-------------8-----------|
A|-6---------------6---------------4---------------4-------------6-----------|
E|-4---------------4---------------------------------------------------------|