Song name
# A B C D E F G H I J K L M N O P Q R S T U V W X Y Z

Baba B - Big Boy In Love tab

im not sure if this is 100% correct but its how i play it
i didnt find these out my friend taught me it cai=use icouldnt find it  anywhere so im 
posting so you dont have the same problem
thanks- terrance


the rhythm guitar (pretty much the whole song)

-3--7---3--5-------|
-3--8---5--7-------|
-4--9---5--7-------|
-5--9---5--7-------|
-5--7---3--5-------|
-3-----------------|


main riff

888--656-6665--------6-5-3-5--|
-------------8-6--------------|
-----------------5h7----------|
------------------------------|
------------------------------|


888--656-6665--------6-5-3-1--|
-------------8-6--------------|
-----------------5h7----------|
------------------------------|
------------------------------|
Tap to rate this tab
 
# A B C D E F G H I J K L M N O P Q R S T U V W X Y Z