Song name
# A B C D E F G H I J K L M N O P Q R S T U V W X Y Z

Babes In Toyland - Right Now tab

Right Now - Babes In Toyland

Chorus
e|--------------|
b|--------------|
g|--------3--5--|
d|--3--5--3--5--|
a|--3--5--1--3--|
E|--1--3--------|

Solo
e|--------------------------------------------------------|
b|--------6-----6-----8--6-----------6-----6-----6--8-----|
g|--7--9-----9-----9--------9--7--9-----9-----9--------9--|
d|--------------------------------------------------------|
a|--------------------------------------------------------|
E|--------------------------------------------------------|
Tap to rate this tab
# A B C D E F G H I J K L M N O P Q R S T U V W X Y Z