Song name
# A B C D E F G H I J K L M N O P Q R S T U V W X Y Z

Babes In Toyland - Blood tab

----------------------------------------------------------------------------
			     BLOOD - Babes in Toyland
----------------------------------------------------------------------------
Tabbed by: illy93
Tuning: Standard

Intro/Verse:

e|---------------------------------------------|
B|---------------------------------------------|
G|---------------------------------------------|
D|---------------------------------------------|
A|--7777777-7777777-101010101010-131313b14b13--|
E|---------------------------------------------|

Chorus:

e|---------------------|----------------|
B|---------------------|----------------|
G|--------------7+7+7+-|----------------|
D|--555---6---7-7+7+7+-|--555---6---2~--|
A|--555---6---7-5+5+5+-|--555---6---2~--|
E|--333-0-4-0-5--------|--333-0-4-0-0~--|
                     x3
Bridge:
e|----------------------------------|------------------------------------|
B|----------------------------------|------------------------------------|
G|----------------------------------|-------------5555-------------------|
D|--44-2222-44-2222-44-5555-44-5555-|------------------44-5555-44--5555--|
A|----------------------------------|--22-0000-22------------------------|
E|----------------------------------|------------------------------------|
                                  x2                                   x1

e|------------------|-----|
B|------------------|-----|
G|--444444-5555-77--|-----|
D|--444444-5555-77--|-77--|
A|--222222-3333-55--|-77--|
E|------------------|-55--|
                  x3


STRUCTURE:
Intro
Verse
Chorus
Verse
Chorus
Bridge
Verse
Chorus

KEY:
~ = use whammy bar
+ = harmonic

============================================================================
Tap to rate this tab
# A B C D E F G H I J K L M N O P Q R S T U V W X Y Z