Song name
# A B C D E F G H I J K L M N O P Q R S T U V W X Y Z

Babes In Toyland - Hello tab

Artist: Babes In Toyland
Album: Nemesisters
Song: Hello
Tuning: Standard

The nice part is there is a bass part for this already on this site. So if you
have a band, this would be a fun song to cover.

Intro:
------------------------------------------------|
-6b-6-----------------6b-6----------------------|
------7(harm.)7(harm.)-----7(harm.)7(harm.)ring-|
------------------------------------------------|
------------------------------------------------|
------------------------------------------------|

Verse:
Part 1:
--0-0-0-1-0-0-----------------------0-0-0-1-0-0-------0--------------0--|
-3-3-3-----3---0-0-0-0-0-0-3-------3-3-3-----3---0-0-0---0-0-3----------|
--------------2-------2-2---2-4b-4--------------2-------2-2---2-4b-4--4-|
------------------------------------------------------------------------|
------------------------------------------------------------------------|
------------------------------------------------------------------------|

Part 2:
--0-0-0-0-0-3/2-3/2-3/2-|
-3-3-3------------------|
------------------------|
------------------------|
------------------------|
------------------------|

Chorus:
--------------------------|
--------------------------|
-777-14-14-14-444-444-444-|
-777-14-14-14-444-444-444-|
-555-12-12-12-222-222-222-|
--------------------------|

Bridge:
------------------------------------------------------------------------|
------------------------------------------------------------------------|
-----------555555555577777777777777777777----------555555555522222222-2-|
-55555555555555555555777777777777777777775555555555555555555522222222-2-|
-55555555553333333333555555555555555555555555555555333333333300000000-0-|
-3333333333------------------------------3333333333---------------------|

That's it. The order's easy. Figure it out.
Tap to rate this tab
 
# A B C D E F G H I J K L M N O P Q R S T U V W X Y Z