Song name
# A B C D E F G H I J K L M N O P Q R S T U V W X Y Z

Babes In Toyland - Mad Pilot tab

-------------------------------------------------------------------------------
			     Mad Pilot by Babes In Toyland
-------------------------------------------------------------------------------

From their 1991 EP, 'To Mother'. Not a lot to this song, just two chords and some string muting.

Tabbed by: Scott H.

"x" = string mute

Tuning: Standard


Repeat riff throughout entire song

e|--2xx-2xx-2xx-2xx-2xx-2xx--33-------|
B|--2xx-2xx-2xx-2xx-2xx-2xx--33-------|
G|--2xx-2xx-2xx-2xx-2xx-2xx--33-------|
D|--4xx-4xx-4xx-4xx-4xx-4xx--55-------|
A|--4xx-4xx-4xx-4xx-4xx-4xx--55-------|
E|--2xx-2xx-2xx-2xx-2xx-2xx--33-------|


Lyrics:
    You are the one that feels that no one's home
    To be left alone is the marrow from my bones
    You are the one
    You are the one
    I can't stand it anymore

    Serves me warm Russian tea
    Carves our love, carves our love into a tree
    You are the one
    You are the one
    I can't stand it anymore

    Feel like a motherfucker 
    When the curly black hair on my sweater
    Spells "S.A.M. was here last winter"
    You are the one
    You are the one
    I can't stand it anymore

    Mad pilot, fly
    Into the mire
    Mad angels, fly
    You are my sky
Tap to rate this tab
# A B C D E F G H I J K L M N O P Q R S T U V W X Y Z