Song name
# A B C D E F G H I J K L M N O P Q R S T U V W X Y Z

Babes In Toyland - Pain In My Heart tab

-------------------------------------------------------------------------------
			     Pain In My Heart by Babes In Toyland
-------------------------------------------------------------------------------
From 1991's 'Spanking Machine'. This is basically the gist of this song, and more
informative than the tab that's already on here. There are a couple of verses where she leaves
off at the E minor (0/2/2) and doesn't play that chord on the 12th fret, just resuming
from the start again. If you listen to the song, you can get the general idea. 
Play with distortion.

Tabbed by: Scott H.

"/" = slide up
"x" = mute strings

Tuning: Standard

Main Riff:

e|---------------------------------------------------|
B|------------------------x--x--x--x--x--x-----------|
G|-3-3-3333-4-4-4444-----12-12-12-12-12-12-----------|
D|-4-4-4444-5-5-5555--2/-12-12-12-12-12-12-----------|
A|-4-4-4444-5-5-5555--2/-12-12-12-12-12-12-----------|
E|-2-2-2222-3-3-3333--0---x--x--x--x--x--x-----------|


Riff II:

e|-3-3-3-3-3-------------------------------|
B|-3-3-3-3-3---x--x--x--x--x--x--x---------|
G|-3-3-3-3-3--12-12-12-12-12-12-12---------|
D|-5-5-5-5-5--12-12-12-12-12-12-12---------|
A|-5-5-5-5-5--12-12-12-12-12-12-12---------|
E|-3-3-3-3-3---x--x--x--x--x--x--x---------|



Main Riff:

    Why, why did you leave me
    When I was still inside of you?
    You search every sky
    But all the stars are inside of me

    Well, I said
    Why did you leave me
    When I was still inside of you?

    Who are you fooling?
    You're transparent to me
    Go inside now

    Why did you leave me
    When I was still inside of you?
    Go inside now, darling
    Your guise is falling


Riff II:

    Fry, fuckin' fry
    Fuckin' fry
    Fuckin' fry
    Fuckin'
    My blue boyfriend


Main Riff:

    Why, why did you leave me
    When I was still inside of you
    I said


Riff II:

    Fry, fuckin' fry
    Fuckin'
    My blue boyfriend


Main Riff:

    Who are you fooling?
    I said, why did you leave mine
    When I was still inside of you?
    Why?
Tap to rate this tab
# A B C D E F G H I J K L M N O P Q R S T U V W X Y Z