Song name
# A B C D E F G H I J K L M N O P Q R S T U V W X Y Z

Babes In Toyland - Blood tab

--------------------------------------------------------------
Artist    :  Babes In Toyland
Song      :  Blood
Album     :  Fontanelle
--------------------------------------------------------------
Tabbed By :  Ricky Thomson
Date      :  17th July 2012
Contact   :  punkalert@gmail.com
--------------------------------------------------------------


b  = bend
pb = pre-bend
x  = rake
~  = vibrato


[intro/verse]
                                                                              x4
e|-----------------------------------------------------------------------------|
B|-----------------------------------------------------------------------------|
G|-----------------------------------------------------------------------------|
D|-----------------------------------------------------------------------------|
A|--7--7--7-7-7-7--7--7--7-7-7-7--10-10--10-10-10--13-13-13b--13pb-13pb-13-13--|
E|-----------------------------------------------------------------------------|



[chorus]
                           x4
e||------------------------||------------------------|
B||------------------------||------------------------|
G||---------------x--x--x--||------------------------|
D||--5-5-5-6-6-7--x--x--x--||--5-5-5-6-6-2b~---------|
A||--5-5-5-6-6-7--x--x--x--||--5-5-5-6-6-2b~---------|
E||--3-3-0-4-0-5-----------||--3-3-0-4-0-0-----------|

(if you have a whammy bar, use that on the E instead of a bend)



[solo]

e|------------------------------------------------------------------|
B|------------------------------------------------------------------|
G|------------------------------------------------------------------|
D|------------------------------------------------------------------|
A|--9-9--7-7-7-7--9-9--7-7-7-7--9-9--10-10-10-10--9-9--10-10-10-10--|
E|------------------------------------------------------------------|

e|------------------------------------------------------------------|
B|------------------------------------------------------------------|
G|------------------------------------------------------------------|
D|------------------------------------------------------------------|
A|--9-9--7-7-7-7--9-9--7-7-7-7--9-9--10-10-10-10--9-9--10-10-10-10--|
E|------------------------------------------------------------------|

e|----------------------------------------------------------------------|
B|----------------------------------------------------------------------|
G|----------------------------------------------------------------------|
D|--9-9--7-7-7-7--9-9--10-10-10-10--------------------------------------|
A|----------------------------------9-9--10-10-10-10--9-9--10-10-10-10--|
E|----------------------------------------------------------------------|



[bridge]
                                                        x3
e||-----------------------------------------------------||------------|
B||-----------------------------------------------------||------------|
G||-----------------------------------------------------||------------|
D||--9-9-9-9-9-9-9-9-9-9-9-9-101010101010101010-121212--||--7---------|
A||--9-9-9-9-9-9-9-9-9-9-9-9-101010101010101010-121212--||--7---------|
E||--7-7-7-7-7-7-7-7-7-7-7-7--8-8-8-8-8-8-8-8-8-101010--||--5---------|


Order:
 intro  
 verse  
 chorus 
 verse  
 chorus 
 solo
 bridge 
 verse  
 chorus 
Tap to rate this tab
# A B C D E F G H I J K L M N O P Q R S T U V W X Y Z