Song name
# A B C D E F G H I J K L M N O P Q R S T U V W X Y Z

Babes In Toyland - Spun tab

Artist: Babes In Toyland
Song: Spun 
Album: Fontanelle
Tabbed by: Martina

INTRO
e-----------------------------------------------|
B-----------------------------------------------|
G------2-1-2--------4---------------------------|
D----3-------3----3-----------------------------|
A---------------4-----~4------------------------|
E--1--------------------------------------------|

e-----------------------------------------------|
B-----------------------------------------------|
G------2-1-2--------4-5-4-4------2-1-2--------4-|
D----3-------3----3------------3-------3----3---|
A---------------4-------------------------4-----|
E--1-------------------------1------------------|

e--------|
B--------|
G-3-4----|
D-----3--|
A--------|
E--------|
   
VERSE (x4)           
e------------------------------------------------|
B--------------------------------------------0---|
G-----2-1-2--------4-3-4--------2-1-2----------4-|
D---3-------3----3-------3----3-------3----3-----|
A--------------4-------------------------4-------|
E-1-------------------------1--------------------|

I live inside 
All invited inside 
Eyes flutter feathers 
My hairs fair like weather 
I've blown my recovery 
Living is nice 
When you're spun like a kite 
Sugar and tea and creem 
Looks like the sea is green with rivalry 

CHORUS (x2)
e------------------------------------------------|
B------------------------------------------------|
G------------------------------------------------|
D--3-xxxx-3-xxxx-3-xxxx-3-xxxx-3-xxxx-3-xxxx-----|
A--3-xxxx-3-xxxx-3-xxxx-3-xxxx-3-xxxx-3-xxxx-----|
E--1-xxxx-1-xxxx-1-xxxx-1-xxxx-1-xxxx-1-xxxx-----|

e-----------------------------|
B-----------------------------|
G--6-6-6-6-x-x-6-6-6-6-x-x----|
D--6-6-6-6-x-x-6-6-6-6-x-x----|
A--4-4-4-4-x-x-4-4-4-4-x-x----|
E-----------------------------|

Now that I know just what you're all about 
I want out 

VERSE  (x3)

I live inside 
All invited inside 
Sugar and tea and cream 
Looks like the sea is green with rivalry

CHORUS (x2)
 
Now that I know just what you're all about 
I want out 

OUTRO (x3)
e------------------------------------------------|
B--------4------4--------------------------------|
G------3------3------3-5-------------------------|
D----3------3------3-----------------------------|
A--3------3------3-------------------------------|
E------------------------------------------------|

Life is real when you're dreaming 
Life's a dream when you're reeling 

then..
e------------------------------------------------|
B------------------------------------------------|
G------------------------------------------------|
D--5-5-5-5-x-x-5-5-5-5-x-x-----------------------|
A--5-5-5-5-x-x-5-5-5-5-x-x-----------------------|
E--3-3-3-3-x-x-3-3-3-3-x-x-----------------------|

Now I want out, i want out ... 

e------------------------------------------------|
B------------------------------------------------|
G------------------------------------------------|
D--5-xxxx-5-xxxx-5-xxxx-5-xxxx-5-xxxx-5-xxxx-5555|
A--5-xxxx-5-xxxx-5-xxxx-5-xxxx-5-xxxx-5-xxxx-5555|
E--3-xxxx-3-xxxx-3-xxxx-3-xxxx-3-xxxx-3-xxxx-3333|


any questions..
isitmeormyattitude@hotmail.com

Tap to rate this tab
# A B C D E F G H I J K L M N O P Q R S T U V W X Y Z