Guitaretab - guitar tabs
Song name
# A B C D E F G H I J K L M N O P Q R S T U V W X Y Z

Babes In Toyland - Sweet 69 tab

-------------------------------------------------------------------------
Sweet 69 - Babes In Toyland - The Further Adventures of Babes in Toyland
-------------------------------------------------------------------------
[ Tab from: http://www.guitaretab.com/b/babes-in-toyland/693.html ]
e|-----------|
b|-----------|
g|-----3--4--|-------------|
d|--2--3--4--|             |
a|--2--1--2--|             |
E|--0--------|             |
                Intro/Verse|
e|-----------|             |
b|-----------|             |
g|-----------|             |
d|--2--5--7--|-------------|
a|--2--5--7--|
E|--0--3--5--|
Related for Sweet 69 tab