Song name
# A B C D E F G H I J K L M N O P Q R S T U V W X Y Z

Babes In Toyland - Ripe tab

"Ripe"
Babes in Toyland
Peel Sessions

hey, I dont know how many times each thing is..I think the verse is 4 times... You will 
to listen to it I guess, its pretty easy... this came off the Peel Session albums so it 
be different...

arpeggiated intro:
e|----------------|
B|----------------|
G|--11-10-13--12--|
D|--12-11-14--13--|
A|--12-11-14--13--|
E|--10--9-12--11--|

verse:
e|----------------------------------------------------------------------|
B|----------------------------------------------------------------------|
G|-11--11-11-11-11-11--10-10-10-10-10---13-13-13-13-13-13--12-12-12-12--|
D|-12--12-12-12-12-12--11-11-11-11-11---14-14-14-14-14-14--13-13-13-13--|
A|-12--12-12-12-12-12--11-11-11-11-11---14-14-14-14-14-14--13-13-13-13--|
E|-10--10-10-10-10-10---9--9--9--9--9---12-12-12-12-12-12--11-11-11-11--| x4

Verse (no lyrics) repeat : hit between verse
e|------|-----|------|------|
B|------|-----|------|------|
G|--11--|--10-|--13--|--12--|
D|--12--|--11-|--14--|--13--|
A|--12--|--11-|--14--|--13--|
E|--10--|--9--|--12--|--11--|

(repeat verse part "I know, I know, I know shut up!" x2)
(repeat verse)
(repeat the second part of the verse)
(repeat verse)

Bridge:
Jphnny walk! Johnny walkeround my ninety pound HUAH!
e|--------------|
B|--------------|
G|--4--6--4--6--|
D|--5--7--5--7--|
A|--5--7--5--7--|
E|--3--5--3--5--|
(repeat verse)
(repeat 2nd part of verse)
(repeat verse)
(bridge)
Tap to rate this tab
# A B C D E F G H I J K L M N O P Q R S T U V W X Y Z