Song name
# A B C D E F G H I J K L M N O P Q R S T U V W X Y Z

Babes In Toyland - Bluebell tab

Help us improve GuitareTab! Take a short survey!
Bluebell - Babes In Toyland

Intro/Outro
e|--------|
b|--------|
g|--------|
d|--2--4--|
a|--2--4--|
E|--0--2--|

Verse
e|-----------|
b|-----------|
g|-----------|
d|--2--4--X--|
a|--2--4--X--|
E|--0--2--X--|

Chorus
e|--------|-----|
b|--------|-----|
g|--7--4--|-----|
d|--7--4--|--7--|
a|--5--2--|--7--|
E|--------|--5--|

The quiet part
e|--------------|
b|--------------|
g|-----------4--|
d|--4--5--7--4--|
a|--4--5--7--2--|
E|--2--3--5-----|
Pm  ..........
Related for Bluebell tab