Song name
# A B C D E F G H I J K L M N O P Q R S T U V W X Y Z

Babes In Toyland - Dust Cake Boy tab

Dust Cake Boy - Babes In Toyland

Intro/Verse
e|-----|--------|
b|-----|--------|
g|-----|--------|
d|-----|--------|
a|--2--|--2--2--|
E|--0--|--0--3--|
Pm  .

Chorus
e|--------------|
b|--------------|
g|--5--4--2--4--|
d|--5--4--2--4--|
a|--3--2--0--2--|
E|--------------|

e|--------------------|---------------|
b|--------------------|---------------|
g|--5--4--2--4--5--7--|--9--10--9--8--|
d|--5--4--2--4--5--7--|--9--10--9--8--|
a|--3--2--0--2--3--5--|--7---8--7--6--|
E|--------------------|---------------|

e|-----------------|------------------|
b|-----------------|------------------|
g|--9--12--14--15--|------------------|
d|--9--12--14--15--|--13--14--13--12--|
a|--7--10--12--13--|--13--14--13--12--|
E|-----------------|--11--12--11--10--|
Tap to rate this tab
# A B C D E F G H I J K L M N O P Q R S T U V W X Y Z