Guitaretab - guitar tabs
Song name
# A B C D E F G H I J K L M N O P Q R S T U V W X Y Z

Babes In Toyland - Hes My Thing tab

Hes My Thing - Babes In Toyland

Intro/Chorus
e|--------------------------------|
b|--------------------------------|
g|--------------------------------|
d|--2--5--7--5--7--5--7--8--7--5--|
a|--2--5--7--5--7--5--7--8--7--5--|
E|--0--3--5--3--5--3--5--6--5--3--|
[ Tab from: http://www.guitaretab.com/b/babes-in-toyland/76120.html ]
Verse
e|-----------|
b|-----------|
g|-----------|
d|--2--5--7--|
a|--0--3--5--|
E|-----------|
Pm  .......

Fill & Outro
e|------------------------|
b|------------------------|
g|--------7--9------------|
d|--9--9--------9--7--7b--|
a|------------------------|
E|------------------------|

e|--------|-----|
b|--------|-----|
g|--4--5--|--7--|
d|--4--5--|--7--|
a|--2--3--|--5--|
E|--------|-----|
Related for Hes My Thing tab