Guitaretab - guitar tabs
Song name
# A B C D E F G H I J K L M N O P Q R S T U V W X Y Z

Baby Animals - Working For The Enemy tab

WORKING FOR THE ENEMY -  Baby Animals

Tabbed by peatemark@hotmail.com
Tune down half a step
b(1) = bend 1 step
b(2) = bend whole step

Intro			(Riff 1)
|---------------||---------------------------|------------------|-----|
|---------------||---------------------------|------------------|-----|
|---------------||-----------------4---------|----------------7-|-x2--|
|---------------||-----2~-------------4(b1)~~|---2---0----5---7-|-----|
|--3-2-0--------||----------5~~--------------|------------5---5-|-----|
|--------3-2-0--||-00-----0-----0------------|-0---0---0--3-----|-----|

Verse1
Have you ever wondered how a love
Can lift you up and then take you down
|----------|--------------------------------0~---|--------------------|	
|----------|--------------------------------0~---|--------------------|	
|-----9\---|--------------------------------9~---|--------------------|	
|-----9\---|--------------------------------9~---|--------------------|	
|-----7\---|-------------------------------------|-3~~---2-0---2-0----|	
|--00------|-------------------------------------|-----------3-----3--|	


In case you haven't noticed You're about to be a loser in this round
|--------------------------------|------------------------------------|
|--------------------------------|------------------------------------|
|--------------9\-------------7~-|---------9--------7\9---------9\7~~~|
|--------------9\-------------7~-|---------9--------7\9---------9\7~~-|
|--------------7\-------------5~-|---------7--------5\7---------------|
|----0----0---------0---0--------|--0--0-------0--0--------0-0--------|

Chorus
Tell yourself it's all too hard Working for the enemy
|----------------|-------------|---------------|----------|	
|----------------|-------------|---------------|----------|	
|-2--------------|---5-----7---|-2-------------|---5--4---|	
|-2--------------|---5-----7---|-2-------------|---5--4---|	
|-0-00-00-00-00--|---3-----5---|-0-00-00-00-00|---3--2---|	
|----------------|-------------|---------------|----------|	

0.46 (Riff 3)
|--------------------------|-------------|	
|--------------------------|-------------|	
|-----0------2~~-----2~~---|-------------|	
|---2---0------------------|-------------|	
|-3-------2------2-0-----0-|-3-2-0-------|	
|--------------------------|-------3-2-0-|	
[ Tab from: http://www.guitaretab.com/b/baby-animals/53964.html ]
Verse2
You think there's something crazy going on
Inside your head behind your eyes
While you light a cigarette
You try to hide the fire from the spies

Chorus
Tell yourself it's all too hard
Working for the enemy
Looking back you must have been
Working for the enemy
Working for the enemy
Working for the enemy

1.26 (Riff 3)
|--------------------------|-------------|	
|--------------------------|-------------|	
|-----0------2~~-----2~~---|-------------| x 2	
|---2---0------------------|-------------|	
|-3-------2------2-0-----0-|-3-2-0-------|	
|--------------------------|-------3-2-0-|	

(Riff 4) 					  1.56
|---------------------|		 |-----|--------------|--continue with--|
|------3-----3------3-|		 |-----|-------7~~~~~-|-Feedback-&------|
|----0---0------------|	x 4	 |--9--|-----7--------|---harmonics-----|
|--3-------2----2-0---|		 |--9--|---7----------|---till--2.21----|
|---------------------|		 |--7--|--------------|-----------------|
|---------------------|		 |--0--|--------------|-----------------|

2.21 (Riff 5)
||------------------|----------------0-|---|--------------------0-----|
||------------------|----------------0-|---|--------------------0-----|
||---------0-0------|-------0--------0-|---|--------------7~~~--0-----|
||--------2----2----|-----4---4------2-|---|------------5-------2-----|
||--0-2-3-------3---|-3/5-------5----2-|---|-0-2-3~~-/7---------2-----|
||------------------|-------------0--0-|---|------------------0-0-----|

			  Solo 2.51
|------------------|--------------------|-----------------------------|
|------------------|--------------------|-----------------------------|
|------------------|-----------------5--|--/4-/5-/7-/9-9-9-9-9-9-9-9-|
|-----------5-7~~~~|-7~~~~~~-7-7-5-7--7-|--/5-/7-/9-/10-10101010101010|
|-0-2-3--/7--------|--------------------|-----------------------------|
|------------------|--------------------|-----------------------------|

|------------------------------------|--------------------------------|
|-10-----12----13-----15-----17-----|-17-------20-17---17-20(b2)~~~--|
|-12(b2)-14(b2)-15(b2)-17(b2)-19(b2)-|-19(b2)--------19---------------|
|------------------------------------|--------------------------------|
|------------------------------------|--------------------------------|
|------------------------------------|--------------------------------|

|------------------------------|
|------------------------------|
|------------------------------|
|----------------55-7~~~~~~\---|
|-00-22-33-55-77---------------|
|------------------------------|

Chorus
Riff 3 and Chorus till end
Related for Working For The Enemy tab