Song name
# A B C D E F G H I J K L M N O P Q R S T U V W X Y Z

Baby Bash - Cyclone Acoustic tab

Capo on 4th Fret

Tabs are relative to the Capo

Follow this version to find strumming patterns:
http://www.youtube.com/watch?v=ui74LYcqIqU

DISCLAIMER: I have done my best to capture the individual
in this YouTube video's version of the song because I think it rocks,
so I in no way intended this to be the "official" version.

e--------0---0---0---0----------0---0---0---0--------|
B--------0---0---0---0----------0---0---0---0--------|
G--------0---0---7---0----------2---2---2---2--------|
D--------5---5---5---5----------5---5---5---4--------|
A--------7---7---7---7----------5---5---5---4--------|
E--0--0--0---0---0---0---0--0---0---0---0---0--------|


e--------0---0---0---0----------0---0---0---0--------|
B--------0---0---0---0----------0---0---0---0--------|
G--------5---5---5---0----------0---0---0---0--------|
D--------5---5---5---5----------2---2---2---2--------|
A--------3---3---3---3----------2---2---2---2--------|
E--0--0--0---0---0---0---0--0---0---0---3---0--------|


Repeat the entire song (chorus and verse).  Use mutes, accents and hammers where 
to give it some variety.

Good luck!
Tap to rate this tab
 
# A B C D E F G H I J K L M N O P Q R S T U V W X Y Z