Song name
# A B C D E F G H I J K L M N O P Q R S T U V W X Y Z

Baby Bash - Sexy Eyes tab

Sexy Eyes(Da Da Da Da)
Baby Bash
Tha Smokin' Nephew

Capo On 4th Fret

e|--------------0-----3----0--------0-----|
B|--1--1--1--0-----0--5/1-----1--0-----0--|
G|--------------0-------------------------|
D|----------------------------------------|
A|--0--0--0-------------------0-----------|
E|-----------0-------------------0-----0--|

For those w\out a capo.

e|--------------4-----7----4--------4-----|
B|--5--5--5--4-----4--9/5-----5--4-----4--|
G|--------------4-------------------------|
D|----------------------------------------|
A|--4--4--4-------------------4-----------|
E|-----------4-------------------4-----4--|

Tap to rate this tab
# A B C D E F G H I J K L M N O P Q R S T U V W X Y Z