Song name
# A B C D E F G H I J K L M N O P Q R S T U V W X Y Z

Baby Strange - Pure Evil chords

Highlighted       Show chord diagrams
-----------------------------------------------------------------------------
                          PURE EVIL-Baby Strange
-----------------------------------------------------------------------------

Intro
e|-------------------------------------------------------------------------|
B|-------------------------------------------------------------------------|
G|-0h2--8--7--5--2-0-2-----0h2--8--7--5--2-0-2-----------------------------|
D|-------------------------------------------------------------------------|
A|-------------------------------------------------------------------------|
E|-------------------------------------------------------------------------|

e|-------------------------------------------------------------------------|
B|-------------------------------------------------------------------------|
G|-8--7--5--2-0---8--7--5--2-0---------------------------------------------|
D|-------------------------------------------------------------------------|
A|-------------------------------------------------------------------------|
E|-------------------------------------------------------------------------|


A
I found love on a Friday, never again
I found my eyes getting blinded, never again
  C                  B       G         A
I hope that when you find me you'll be scared
  C                  B       G        A
I hope that when you find me I'll be dead

e|-------------------------------------------------------------------------|
B|-------------------------------------------------------------------------|
G|-8--7--5--2-0---8--7--5--2-0---------------------------------------------|
D|-------------------------------------------------------------------------|
A|-------------------------------------------------------------------------|
E|-------------------------------------------------------------------------|

A
I fell in love on a Friday, waiting for you
Something died inside me, coz I know I don't need you
      C                  B       G         A
But I hope that when you find me you'll be scared
  C                  B       G       A
I hope that when you find me I'll be dead

A
Ew I'm tired of my generation
Ew I only wanna be unknown
   C   B        G      A
Ew I'm tired of my own form

A
Lost me on a Thursday
I was going to be seen
I crept up behind her
  C                  B        G       A
I hope that when you find out I'll be dead
  C                  B        G         A
I hope that when you find out you'll be scared

A
Ew I'm tired of my generation
Ew I only wanna be unknown
   C   B        G      A
Ew i'm tired of my own form

A
Ew I'm tired of my generation
Ew I only wanna be unknown
   C   B        G      A
Ew I'm tired of my own form

C    B    G    A
Ahhh ahhh ahhh ahhh

C    B    G    A
Ahhh ahhh ahhh ahhh


e|-------------------------------------------------------------------------|
B|-------------------------------------------------------------------------|
G|-------------------------------------------------------------------------|
D|-------------------------------------------------------------------------|
A|-----3----3----3---------------------------------------------------------|
E|--55---55---55---5-33----------------------------------------------------|

A
Ew I'm tired of my generation
Ew I only wanna be unknown
   C   B        G      A
Ew I'm tired of my own form

A
Ew I'm tired of my generation
Ew I only wanna be unknown
   C   B        G      A
Ew I'm tired of my own form

A
Ew I'm tired of my own form
          A
My own form
          A
My own form
          A
My own form
          A
My own form


https://www.facebook.com/babystrangemusic?fref=ts
Tap to rate this tab
# A B C D E F G H I J K L M N O P Q R S T U V W X Y Z