Song name
# A B C D E F G H I J K L M N O P Q R S T U V W X Y Z

Baby Strange - Pure Evil tab

Intro
e|-------------------------------------------------------------------------|
B|-------------------------------------------------------------------------|
G|-------------------------------------------------------------------------|
D|-5-7--(13-12-10-7-5-7)x 4------------------------------------------------|
A|-------------------------------------------------------------------------|
E|-------------------------------------------------------------------------|

Verse and Chorus follow same pattern with slightly different rhythm:


     A   C   B   G   A
e|-------------------------------------------------------------------------|
B|-------------------------------------------------------------------------|
G|-------5-----------------------------------------------------------------|
D|---7---5---4---5---7-----------------------------------------------------|
A|---7---3---4---5---7-----------------------------------------------------|
E|---5-------2---3---5-----------------------------------------------------|

Riff at 02:17

e|-------------------------------------------------------------------------|
B|-------------------------------------------------------------------------|
G|-------------------------------------------------------------------------|
D|-------------------------------------------------------------------------|
A|------3-3-----3-3----3-2-------------------------------------------------|
E|--5-5-----5-5----5-5-----3-3---------------------------------------------|
Tap to rate this tab
 
# A B C D E F G H I J K L M N O P Q R S T U V W X Y Z