Song name
# A B C D E F G H I J K L M N O P Q R S T U V W X Y Z

Babybird - Youre Gorgeous tab

BABYBIRD - YOUR GORGEOUS

Tabbed by: Anders Jürisoo (anders_jurisoo2@hotmail.com) 2001-01-03

Lyrics added by: Paul Burton (ost2life@yeahiwasthere.com) 6/9/06
Standard Tuning, no Capo
_______________________________________________________________________________
INTRO
   C                          F                                         
E||-----0--------0-----------|-----1--------1-----------|
B||--------1--------1-----1--|--------1--------1-----1--|
G||--0--------0--------0-----|--2--------2--------2-----|
D||--------------------------|--------------------------|
A||--------------------------|--------------------------|
E||--------------------------|--------------------------|

VERSE
C & F chords

CHORUS
C & F chords

RIFF 
  C                     F                     C
E||--1----0-------------|---------------------|--1----0-------------|
B||--------------1------|--------------1------|--------------1------|
G||---------------------|--0----2-------------|---------------------|
D||---------------------|---------------------|---------------------|
A||---------------------|---------------------|---------------------|
E||---------------------|---------------------|---------------------|


F                         
--------------------|
--------------------|
--0----2------------|
--------------------|
--------------------|
--------------------|

OUTRO
C & F chords
Tap to rate this tab
# A B C D E F G H I J K L M N O P Q R S T U V W X Y Z