Song name
# A B C D E F G H I J K L M N O P Q R S T U V W X Y Z

Babylon Bombs - Spirit Of Bladehenge tab

THIS IS ONLY THE 1ST PART OF THE SONG I WILL GET THE REST UP SOON!
P.S.: THIS IS MY 1ST TAB!
Artist: Brutal Legend (Babylon Bombs)
Song: Spirit of Bladehenge
Tabbed By: Sean K.                        Email: SKutcher5995@Yahoo.com
Key: (\)Slide Down  (/)Slide Up   (v)Vibrato

e|---------5---------6-------5---5---0--------|
B|------6----6----6----6---6---6---6-----6----|
G|---7----------7--------7--------------------|
D|--------------------------------------------|
A|--------------------------------------------|
E|--------------------------------------------|

e|--------------------------------------------------------|
B|-----------5--6------6\5--------------------8-----------|
G|---7---7------------------7---7/9--------9-----10----9--|
D|-----8----------8--------------------10-----------10----|
A|--------------------------------------------------------|
E|--------------------------------------------------------|

e|------5----------6------------8--------10--------------|
B|---6----6-----6-----6--------8-----------10------------|
G|-----------7-----------7/9------9/10-------10--9-------|
D|-------------------------------------------------------|
A|-------------------------------------------------------|
E|-------------------------------------------------------|

e|--------------------------------------------------------|
B|-----------5--6------6\5--------------------8-----------|
G|---7---7------------------7---7/9--------9-----10v------|
D|-----8----------8--------------------10-----------------|
A|--------------------------------------------------------|
E|--------------------------------------------------------|
Tap to rate this tab
# A B C D E F G H I J K L M N O P Q R S T U V W X Y Z