Song name
# A B C D E F G H I J K L M N O P Q R S T U V W X Y Z

Babylon Chat - Como Un Huracan tab

Para cualquier cosa: enol-machacadiablo@hotmail.com


|---------------------------------------------------------------------------|
|---------------------------------------------------------------------------|
|-----2-0---------------------2-0-------0---------2-0---------------0-------|
|---------3-2-0-2-3--------------3-2-3---------------3-2-3-0-2-3---0-2-3-2--|
|---------------------------------------------------------------------------|
|---------------------------------------------------------------------------|

|-----------------------------------------------------------------|
|-----------------------------------------------------------------|
|-----2-0---------------------2-0-------0---------2-0-------------|
|---------3-2-0-2-3--------------3-2-3---------------3-0-2-3-0-2--|
|-----------------------------------------------------------------|
|-----------------------------------------------------------------|

ĦĦĦHALA OVIEDO!!!


By MACHACADIABLO
Tap to rate this tab
# A B C D E F G H I J K L M N O P Q R S T U V W X Y Z