Song name
# A B C D E F G H I J K L M N O P Q R S T U V W X Y Z

Babylon Zoo - The Boy With The X-ray Eyes tab

  Standard Tuning
  4/4
  Q=55


   1st Verse (Piano)
   
E||--2-------2-------2-------2-------|----------------------------------|
B||--3-------3-------3-------3-------|------------------0-------0-------|
G||--4-------4-----4-4-----4-4-------|--2-------2-------0-------0-------|
D||--4-------4-------4-------4-------|--0-------0-------0-------0-------|
A||--2-------2-------2-------2---2---|--2-------2-------2-------2-------|
E||----------------------------------|--3-------3---3---3-------3---3---|

E||--2-------2-------2-------2-------|----------------------------------|
B||--3-------3-------3-------3-------|------------------0-------0-------|
G||--4-------4-------4-------4-------|--2-------2-------0-------0-------|
D||--4-------4-------4-------4-------|--0-------0-------0-------0-------| x2
A||--2-------2-------2-------2---2---|--2-------2-------2-------2-------|
E||----------------------------------|--3-------3---3---3-------3---3---|

E||--2-------2-------2-------2-------|----------------------------------|
B||--3-------3-------3-------3-------|----------------------------------|
G||--4-------4-------4-------4-------|--0-------------------------------|
D||--4-------4-------4-------4-------|--3-------------------------------|
A||--2-------2-------2-------2-------|--3-------------------------------|
E||----------------------------------|--1-------------------------------|

E||--0---------------0---------------|----------------------------------|
B||--------3-----1---------3-----1---|----------------------------------|
G||----0-----0---------2-----2-------|--0-------------------------------|
D||------2-----2---------2-----2-----|--3-------------------------------|
A||----------------------------------|--3-------------------------------|
E||----------------------------------|--1-------------------------------|

E||--0---------------0---------------|----------------------------------|
B||--------3-----1---------3-----1---|--1-------1-------2-------2-------|
G||----0-----0---------2-----2-------|--2-------2-------2-------2-------|
D||------2-----2---------2-----2-----|--3-------3-------4-------4-------|
A||----------------------------------|--3-------3-------4-------4-------|
E||----------------------------------|--1-------1-------2-------2-------|

E||----------------------------------|
B||--1-------1-------2-------2-------|
G||--2-------2-------2-------2-------|
D||--3-------3-------4-------4-------|
A||--3-------3-------4-------4-------|
E||--1-------1-------2-------2-------|



  Q=65

   Sitar before 1st Chorus
E||----------------------------------|
B||----------------------------------|
G||------------------2---2-4---2-2---|
D||----4-----4-5---5---------------4-|
A||--2-----2-----2-----2-----2-------|
E||----------------------------------|


  Q=70

 Chorus
(I advice you to use only 1&4 finger of your left hand for the first 2 bars)
E||----------------------------------|----------------------------------|
B||----------4---------------4-------|----------------------------------|
G||----------4---------------4-------|----------6-----------------------|
D||----------4---------------4-------|----------6-----------------------|
A||--2---2---2--2-2-0---0----0---0-0-|----------6-------5---5---5---5-0-|
E||----------------------------------|--4---4---4---4-0-3-0-3-0-3-0-3---|

E||----------------------------------|----------------------------------|
B||----------4---------------4-------|----------3-----------------------|
G||----------4---------------4-------|----------0-----------------------|
D||----------4---------------4-------|----------0-----------------------|
A||--2---2---2---2-2-0---0---0---0-0-|----------2---2-2---2-2---2-2-2-2-|
E||----------------------------------|--3---3---3---3-3---0-0---0-0-0-0-|


   2nd Verse
E||----------------------------------|----------------------------------|
B||----------4---------------6-------|----------4---------------2-------|
G||----------4---------------6-------|----------4---------------3-------|
D||----------6---------------6-------|----------4---------------4-------|
A||----------6-------2/4-4---4---4-0-|--2---2---2---2-----------4-------|
E||--4---4---4---4-4-----------------|----------------0-2---2---2---2-2-|
                                                           
E||----------------------------------|----------------------------------|
B||----------4---------------6-------|------9---9---9-9---9-9---9-9-9-9-|
G||----------4---------------6-------|------9---9---9-9---9-9---9-9-9-9-|
D||----------6---------------6-------|------9---9---9-9---9-9---9-9-9-9-|
A||----------6-------2/4-4---4---4/--|--7---7---7---7-7---7-7---7-7-7-7-|
E||--4---4---4---4-4-----------------|----------------------------------|


  Break
E||----------------------------------|----------------------------------|
B||----------0---0-0---------0---0-0-|----------0---0-0-----------------|
G||--6---6---4---4-4-6---6---4---4-4-|--6---6---4---4-6\5---5---5-5-5-5-|
D||--6---6-----------6---6-----------|--6---6---------6\5---5---5-5-5-5-|
A||--4---4-----------4---4-----------|--4---4---------4\3---3---3-3-3-3-|
E||----------------------------------|----------------------------------|


   3rd Verse
E||----------------------------------|----------------------------------|
B||--------------------------6-------|----------4---------------2-------|
G||--------------------------6-------|----------4---------------3-------|
D||--------------------------6-------|----------4---------------4-------|
A||------------------2/4-4---4---4-0-|--2---2---2---2-----------4-------|
E||--4-------------------------------|----------------0-2---2---2---2-2-|
                                                           
E||----------------------------------|----------------------------------|
B||----------4---------------6-------|------9---9---9-9---9-9---9-9-9-9-|
G||----------4---------------6-------|------9---9---9-9---9-9---9-9-9-9-|
D||----------6---------------6-------|------9---9---9-9---9-9---9-9-9-9-|
A||----------6-------2/4-4---4---4/--|--7---7---7---7-7---7-7---7-7-7-7-|
E||--4---4---4---4-4-----------------|----------------------------------|
Tap to rate this tab
 
# A B C D E F G H I J K L M N O P Q R S T U V W X Y Z