Song name
# A B C D E F G H I J K L M N O P Q R S T U V W X Y Z

Babymetal - Ijime Dame Zettai tab

This is a great band! I wish there were more tabs for them.
Tuning: Drop C# (C#-G#-C#-F#-A#-D#)
The timing is off, but the all of the notes are there. 

Intro (Speed Picked)                Intro Fill
|----------------------------|     |---------------|
|----------------------------|     |---------------|
|----------------------------|(X3) |---------------|
|----------------------------|     |3---3----------|
|----------------------------|     |1---1-/3--5--3-|
|7-00-6-00-5-00-3-00-2-0-1-0-|     |--3------------|
 . .. . .. . .. . .. . . . .

|----------------------------|     |----------------|
|----------------------------|     |----------------|
|----------------------------|(X3) |----------------|
|----------------------------|     |3---3-------2---|
|----------------------------|     |1---1--3--5---3-|
|7-00-6-00-5-00-3-00-2-0-1-0-|     |--3-------------|
 . .. . .. . .. . .. . . . .

|----------------------------|     |---------------|
|----------------------------|     |---------------|
|----------------------------|(X3) |---------------|
|----------------------------|     |3---3----------|
|----------------------------|     |1---1-/3--5--3-|
|7-00-6-00-5-00-3-00-2-0-1-0-|     |--3------------|
 . .. . .. . .. . .. . . . .

|----------------------------|     |-----------|
|----------------------------|     |-----------|
|----------------------------|(X3) |-----------|
|----------------------------|     |3---3------|
|----------------------------|     |1---1--3---|
|7-00-6-00-5-00-3-00-2-0-1-0-|     |--3--------|
 . .. . .. . .. . .. . . . .

Intro Solo   ~~              ~~
|---------17-20--------------20---------------17-17---17-18-17--17----18-17-|
|17-18-20--------18--17--18-----18--17--18----------------------------------|
|------------------------------------------17-------------------------------|
|---------------------------------------------------------------------------|
|---------------------------------------------------------------------------|
|---------------------------------------------------------------------------|
          ~~                                                      ~~
|---------20------------20--20^-20---18---17----17-17----17-18-17----|
|20-17-18----18--17--18-------------------------------------------20-|
|--------------------------------------------17----------------------|
|--------------------------------------------------------------------|
|--------------------------------------------------------------------|
|--------------------------------------------------------------------|
                                      ~~   Pre-Verse Riff
|------------17-------17-20-17-18-20--20^| |------------------|
|20-17-18-20----18-20--------------------| |------------------|
|----------------------------------------| |------------------|
|----------------------------------------| |-2--3--5--3-2-0---|
|----------------------------------------| |-0--1--3--------3-|
|----------------------------------------| |------------------|

Verse
|------------------------------------------------------------------|
|------------------------------------------------------------------|
|------------------------------------------------------------------|
|7------7------7----5------5------5----3------3------3----2------2-|
|5-5555-5-5555-5-55-3-3333-3-3333-3-33-1-1111-1-1111-1-11-0-0000-0-|
|------------------------------------------------------------------|
 . .... . .... . .. . .... . .... . .. . .... . .... . .. . .... .
 Verse Fill 1
|------------| |------------------------------|
|------------| |------------------------------|
|------------| |------------------------------|
|------------| |------------3~~~-------2t-----|
|3--1--0--3--| |5~~~3~~~5~~~1~~~-3t-5t----3t--|
|------------| |5~~~3~~~5~~~------------------|
                                 .  .  .  . 

|------------------------------------------------------------------|
|------------------------------------------------------------------|
|------------------------------------------------------------------|
|7------7------7----5------5------5----3------3------3----2------2-|
|5-5555-5-5555-5-55-3-3333-3-3333-3-33-1-1111-1-1111-1-11-0-0000-0-|
|------------------------------------------------------------------|
 . .... . .... . .. . .... . .... . .. . .... . .... . .. . .... .

|--------------------------------------------------|
|---------------------------------------6~~~8~~~---|
|---------------------5-3-2---2-----7~~~3~~~5~~~5*-|
|5-3-2--------------3-------5-------5~~~-----------|
|------3----5~~~--3--------------------------------|
|-----------5~~~3----------------------------------|
                . . . 

|---------------------------------------||------------||---------------|
|---------------------------------------||------------||---------------|
|---------------------------------------||------------||---------------|
|3----5----2---------7------------------||------------||---------------|
|1-1t-3-3t-0-0t--4t--5-5t--3t--1-1-0-0--||5~~~7~~~8~~~||7-7-7--5-7-8-7-|
|---------------------------------------||5~~~7~~~8~~~||7-7-7--5-7-8-7-|
   .    .    .   .                                      . . .  . . . . 
|----------------------------------------|
|----------------------------------------|
|----------------------------------------|(x2)
|------------5~~~----3~~~3-2~~-----------|
|7~~~0~~~5~~~3~~~3~~~1~~~1-0~~5~~~5~~~3~~|
|7~~~0~~~5~~~----3~~~---------5~~~5~~~3~~|

|------------------------------------------||------------||------------|
|------------------------------------------||------------||------------|
|------------------------------------------||------------||------------|
|-----------------------------3-----3-2-0--||------3t----||------3t-2t-|
|0-----1-0-----5-4-3--0-----1-1---2-------3||5t-1t----3t-||5t-1t-------|
|0-0t--1-0-0t--5-4-3--0-0t--1---3----------||------------||------------|
   .       .            . 
|------------||------------|
|------------||------------|
|------------||------------|
|------3t----||------3t-2t-|
|5t-1t----3t-||5t-1t-------|
|------------||------------|
 
Solo 2
|17-13----13-18-13----13-20-17----17-15-12----12-17-13----13-18-13----|
|------15----------15----------18----------13----------15----------15-|
|---------------------------------------------------------------------|
|---------------------------------------------------------------------|
|---------------------------------------------------------------------|
|---------------------------------------------------------------------|

|13-17-13----13-15-12----12-17-13----13-18-13----13-17p15p13----------|
|---------15----------13----------15----------15-------------17p15p13-|
|---------------------------------------------------------------------|
|---------------------------------------------------------------------|
|---------------------------------------------------------------------|
|---------------------------------------------------------------------|

|---------12h13h15--17-16-15-13-12-------------13-12--------|
|12h13h15-----------20^19^18^16^15^13---10-11--16^15^-------|
|----------------------------------15^--12^13^--------------|
|-----------------------------------------------------------|
|-------------------------------------------------------0~~~|
|-------------------------------------------------------0~~~|

|-----------------------------------------------------|
|-----------------------------------------------------|
|-----------------------------------------------------|
|-----------------------------------------------------|
|5-55-5--5-3~~~3--3--3--3--3--3--5--5--5--5--5--5--5--|
|5-55-5--5-3~~~3--3--3--3--3--3--5--5--5--5--5--5--5--|
   ..          .  .  .  .   . .  .  .  .  .  .  .  .

|--------------------------|  
|--------------------------|  
|--------------2-----2-3-5-|  
|0-2-3-5-2-3-5---3-5-------|  
|--------------------------|  
|--------------------------|  

|----------------------------------------|
|----------------------------------------|
|----------------------------------------|(x2)
|------------5~~~----3~~~3-2~~-----------|
|7~~~0~~~5~~~3~~~3~~~1~~~1-0~~5~~~5~~~3~~|
|7~~~0~~~5~~~----3~~~---------5~~~5~~~3~~|


|---------------|
|---------------|
|---------------|
|---------------|
|7-7-7--5-7-8-7-|
|7-7-7--5-7-8-7-|
 . . .  . . . .

|----------------------------------------|
|----------------------------------------|
|----------------------------------------|(x2)
|------------5~~~----3~~~3-2~~-----------|
|7~~~0~~~5~~~3~~~3~~~1~~~1-0~~5~~~5~~~3~~|
|7~~~0~~~5~~~----3~~~---------5~~~5~~~3~~|
 
Solo 3                  ~~
|---------------------------------------------------------|
|---------------8--10---6-8-10-8-6-5-------6--5-----5--8--|
|-----------7-10------------------------7--------7--------|
|12\\\7-8-10--------------------------5-------------------|
|12\\\----------------------------------------------------|
|12\\\----------------------------------------------------|

|5----5-5-5------5--8-6-5-6-5---5-------------5---5-5-5---5-7-|
|------------6-8---------8---8-6-8-6-5-5-6-8------------7-----|
|-------------------------------------7-----------------------|
|-------------------------------------------------------------|
|-------------------------------------------------------------|
|-------------------------------------------------------------|

|9-7-5---7-5-----5-------------5-7-9--12---12-12-12-17-19-----|
|------9-----9-7---9-7-5-5-7-9--------------------------------|
|-------------------------------------------------------------|
|-------------------------------------------------------------|
|-------------------------------------------------------------|
|-------------------------------------------------------------|
                                                    ~~  ~~
|21-19-17----------------------------------17-19----17--17---17-17--|
|---------21-19-17----------------17-19-21--------------------------|
|------------------19-18-16-18-19-----------------------------------|
|-------------------------------------------------------------------|
|-------------------------------------------------------------------|
|-------------------------------------------------------------------|
           ~~                                             ~~
|19---19^--19---17---16|-16------------16---17-19-21-21^--21-|
|----------------------|-----17--17-19-----------------------|
|----------------------|-------------------------------------|
|----------------------|-------------------------------------|
|----------------------|-------------------------------------|
|----------------------|-------------------------------------|
                           ~~         ~~                   ~~
|--17------19^-19-17---19-|19--17--19-19---17--19-|21--21^-21-|
|------17-----------------|-----------------------|-----------|
|-------------------------|-----------------------|-----------|
|-------------------------|-----------------------|-----------|
|-------------------------|-----------------------|-----------|
|-------------------------|-----------------------|-----------|

|8-5-------5-13-8----------8-13-8--------8t-10t-12t-13t--10-7-------|
|----6---6--------10----10--------10--------------------------9---9-|
|------5-------------10--------------10-------------------------7---|
|-------------------------------------------------------------------|
|-------------------------------------------------------------------|
|-------------------------------------------------------------------|

|7-16-12-17-12-----------12-16-12------------------------------------------|
|--------------12----12-----------17-15-13-11-15-13-11-10-13-11-10---------|
|-----------------13-----------------------------------------------12-10-12|
|--------------------------------------------------------------------------|
|--------------------------------------------------------------------------|
|--------------------------------------------------------------------------|

|----------------------10-13---12---10--17-12----------12-17-12---------|
|-10-11-13^--11----13-------------------------15----15----------15---15-|
|------------------------------------------------14---------------14----|
|-----------------------------------------------------------------------|
|-----------------------------------------------------------------------|
|-----------------------------------------------------------------------|

|12-17-12---------17-12----------12-17-12----------12-17-12----|
|---------15------------14----14----------14----14----------14-|
|------------14------------14----------------14----------------|
|--------------------------------------------------------------|
|--------------------------------------------------------------|
|--------------------------------------------------------------|

That is as far as I've gotten, but it does have all the solos....

Cheers!

--Daniel T.
Tap to rate this tab
 
# A B C D E F G H I J K L M N O P Q R S T U V W X Y Z