Song name
# A B C D E F G H I J K L M N O P Q R S T U V W X Y Z

Babymetal - Megitsune tab

MEGITSUNE  BABYMETAL

Figure out yourselves what is the strumming on some other parts `cuz its hard to put it in tabs.
But Im pretty sure this is 80 out of 100% accurate. Pls spare me if there are mistakes though..
*  - palm mute
^ -  harmonics
h  hammer
~ - let ring

TUNING : DROP C (  C G C F A D  )
(INTRO)
D------------------------------|-----------------------------|
A|-----------------------------|-----------------------------|
F|-----------------------------|-----------------------------|
C|--5555-5-55-------5555-5-55--|--//--5~--1~--5~--7h8-7h8----|
G|--5555-5-55-------5555-5-55--|--//--5~--1~--5~--7h8-7h8----|
C|--5555-5-55-------5555-5-55--|--//--5~--1~--5~--7h8-7h8----|
    **** * **       **** * **         *   *   *                                       

 
D|--------------------------------|
A|--------------------------------|
F|----------------------5^--------|
D|-111111111--3333333-------------|
A|-111111111--3333333-------------|  
F|-111111111--3333333-------------|
   *********  *******








BREAKDOWN  

D|----------------------------|-----------------------------|      |------|
A|----------------------------|-----------------------------|      |------|
F|----------------------------|-----------------------------|      |------|
C|--55-55-55-5---33-33-33-3---|--11-11-11-1----33-33-33-3---| x2   |--5~--|
G|--55-55-55-5---33-33-33-3---|--11-11-11-1----33-33-33-3---|      |--5~--|
C|--55-55-55-5---33-33-33-3---|--11-11-11-1----33-33-33-3---|      |--5~--|
    ** ** ** *   ** ** ** *      ** ** ** *    ** ** ** *                   

VERSE

D|----------------------------------------|---------------|
A|----------------------------------------|---------------|
F|----------------------------------------|---------------|
C|--//------------------------------------|-11-11--33-33--|
G|--//------------------------------------|-11-11--33-33--|
C|--//--55555555555555555555555555555555--|-11-11--33-33--|
        ********************************    ** **  ** **

D|--------------------------------|------------------------|
A|--------------------------------|------------------------|
F|--------------------------------|------------------------|
C|--------------------------------|-----------33-33-33-333-|
G|--------------------------------|-----------33-33-33-333-|
C|------555555555555555555555555--|-11111111--33-33-33-333-|
        ************************    ********  ** ** ** ***

BREAKDOWN 2
D|----------------------------|-----------------------------|      
A|----------------------------|-----------------------------|      
F|----------------------------|-----------------------------|      
C|--55-55-55-5---33-33-33-3---|--11-11-11-1----33-33-33-3---| x2   
G|--55-55-55-5---33-33-33-3---|--11-11-11-1----33-33-33-3---|      
C|--55-55-55-5---33-33-33-3---|--11-11-11-1----33-33-33-3---|      
    ** ** ** *   ** ** ** *      ** ** ** *    ** ** ** *                   




PRE-CHORUS (i suggest sliding)(fast change)
D|-------------------------------------------------------||
A|-------------------------------------------------------||
F|--7------9------10----14-----10----9-----7-------------||
C|--x-x4--x-x4-x-x4---x-x4--x-x4-x-x4-x-x4----------||
G|--5------7------8-----12-----8-----7-----5-------------||
C|-----------------------------------------------000333--||

D|-------------------------------------------------------------------------||
A|-------------------------------------------------------------------------||
F|--7------9------10----14-----10----9-----7------6------3h5-3h5-3h5-5^---||
C|--x-x4---x-x4--x-x4-x-x4--x-x4-x-x4-x-x4--x-x4---------------------||
G|--5------7------8-----12-----8-----7-----5------4------------------------||
C|-------------------------------------------------------------------------||



CHORUS ( i guess there are some palm mutes on chorus, figure it out)
D|------------------------------------------------------------------------|
A|------------------------------------------------------------------------|
F|------------------------------------------------------------------------|
C|-5555555555555555--8888888888888888--1111111111111111--3333333333333333-|x3
G|-5555555555555555--8888888888888888--1111111111111111--3333333333333333-|
C|-5555555555555555--8888888888888888--1111111111111111-3333333333333333-|


D|--------------------------------------------------------------------------|
A|--------------------------------------------------------------------------|
F|--------------------------------------------------------------------------|  
C|-5555555555555555--8888888888888888--1111111111111111-333555444333444-0~-|
G|-5555555555555555--8888888888888888--1111111111111111--333555444333444-0~-|      
C|-5555555555555555--8888888888888888--1111111111111111-333555444333444-0~-| 



D|-------------|
A|-------------|
F|-------------|  
C|-0~--1~--0~--|
G|-0~--1~--0~--|
C|-0~--1~--0~--| 
              


D|--------------------------------------------------------------------------|
A|--------------------------------------------------------------------------|
F|-------------------------------------------------------------5^-----------|
D|--------------------------------------------------------------------------|
A|----------------------------------------------------5-6-5-----------------|
F|-0000-0-00--0000-0-00--0000-0-00-00000000000--5-7-8-----------------------|
   **** * **  **** * **  **** * ** *********** 




 
2nd BREAKDOWN (figure out the Strums)
D|----------------------------------------------------------|
A|----------------------------------------------------------|
F|----------------------------------------------------------|  
C|-------------------------------------5--7-5-1-------------| x2
G|-------------------------------------5--7-5-1-------------|
C|--00-0000-00-0000-00-0000-00-0000-00-5--7-5-1-------------|
    ** **** ** **** ** **** ** **** **

D|---------------------------|--------|-----------------|
A|---------------------------|--------|-----------------|
F|---------------------------|--------|-----------------|    
C|--12--8--12-13-12--12-8-7--|---5~---|--5~--1~--3~-----|
G|--12--8--12-13-12--12-8-7--|---5~---|--5~--1~--3~-----|
C|--12--8--12-13-12--12-8-7--|---5~---|--5~--1~--3~-----|

BREAKDOWN 3
D|----------------------------|-----------------------------|      
A|----------------------------|-----------------------------|      
F|----------------------------|-----------------------------|      
C|--55-55-55-5---33-33-33-3---|--11-11-11-1----33-33-33-3---| x2   
G|--55-55-55-5---33-33-33-3---|--11-11-11-1----33-33-33-3---|      
C|--55-55-55-5---33-33-33-3---|--11-11-11-1----33-33-33-3---|      
    ** ** ** *   ** ** ** *      ** ** ** *    ** ** ** * 
  PRE-CHORUS
D|-------------------------------------------------------||
A|-------------------------------------------------------||
F|--7------9------10----14-----10----9-----7-------------||
C|--x-x4---x-x4--x-x4-x-x4--x-x4-x-x4-x-x4----------||
G|--5------7------8-----12-----8-----7-----5-------------||
C|-----------------------------------------------000333--||

D|-------------------------------------------------------------------------||
A|-------------------------------------------------------------------------||
F|--7------9------10----14-----10----9-----7------6------3h5-3h5-3h5-5^---||
C|--x-x4---x-x4--x-x4-x-x4--x-x4x-x4--x-x4--x-x4---------------------||
G|--5------7------8-----12-----8-----7-----5------4------------------------||
C|-------------------------------------------------------------------------||
               
 
D|-------------------------------------------|-------------|      
A|-------------------------------------------|-------------|      
F|-------------------------------------------|-------------|<<< these are (1)      
C|--5~---8-8~----1~----3~-0-3-0-5~--8~-8-1---|--11111------|    not (11)  
G|--5~---8-8~----1~----3~-0-3-0-5~--8~-8-1---|--11111------|      
C|--5~---8-8~----1~----3~-0-3-0-5~--8~-8-1---|--11111------|


CHORUS
D|------------------------------------------------------------------------|
A|------------------------------------------------------------------------|
F|------------------------------------------------------------------------|  
C|-5555555555555555--8888888888888888--1111111111111111--3333333333333333-|x3 
G|-5555555555555555--8888888888888888--1111111111111111--3333333333333333-|  
C|-5555555555555555--8888888888888888--1111111111111111-3333333333333333-|


D|--------------------------------------------------------------------------|
A|--------------------------------------------------------------------------|
F|--------------------------------------------------------------------------|  
C|--5555555555555555--8888888888888888--1111111111111111-333555444333444---|   
G|--5555555555555555--8888888888888888--1111111111111111--333555444333444---|      
C|--5555555555555555--8888888888888888--1111111111111111-333555444333444---|

i cant figure out the last part of this ^

BREAKDOWN 4
D|----------------------------|-----------------------------|      
A|----------------------------|-----------------------------|      
F|----------------------------|-----------------------------|      
C|--55-55-55-5---33-33-33-3---|--11-11-11-1----33-33-33-3---| x2   
G|--55-55-55-5---33-33-33-3---|--11-11-11-1----33-33-33-3---|      
C|--55-55-55-5---33-33-33-3---|--11-11-11-1----33-33-33-3---|      
    ** ** ** *   ** ** ** *      ** ** ** *    ** ** ** *  

D|------------------------------------------------------|      
A|------------------------------------------------------|      
F|------------------------------------------------------|      
D|--5-5-5-5--55-55-55-5-55-55-55-5-55-555555------------|      
A|--5-5-5-5--55-55-55-5-55-55-55-5-55-555555------------|      
F|--5-5-5-5--55-55-55-5-55-55-55-5-55-555555------------|
    * * * *  ** ** ** * ** ** ** * ** ******

figure the strumming of this part also ^



THIS IS ALL OF IT.. just figure some of the Strums and youre good to go :)
For Comments and Suggestions find me on FACEBOOK.
www.facebook.com/BlazingFiraga or www.Instagram.com/mudvayneangelo
Tap to rate this tab
# A B C D E F G H I J K L M N O P Q R S T U V W X Y Z