Song name
# A B C D E F G H I J K L M N O P Q R S T U V W X Y Z

Babymetal - Akatsuki tab

-------------------------------------------------------------------------------
                             Babymetal - Akatsuki
-------------------------------------------------------------------------------

Tuning: C# tuning. (C#, F#, B, E, G#, C#)

Here is a video of me playing it: https://www.youtube.com/watch?v=cE-351zSB-8

************************************
| *   Pinch harmonic
| /   slide up
| \   slide down
| h   hammer-on
| p   pull-off
| ~   vibrato
| +   harmonic
| x   Mute note
| b   Bend
| pb  Pre-bend
| br  Bend release
| pbr Pre-bend release
| brb Bend release bend

************************************

INTRO
e|-----------------------------------------------------------------------------|
B|-----3-4------3-4-----------6-----4------------9---------6-------3-1---0-----|
G|---0--------0-----------5-----5-----5--------8---------5-------0-------0-----|
D|----------------------5---5-----5---------10---------6-----------------0-----|
A|-3--------1----------------------------/8----------5-------------------0-----|
E|-------------------4-----------------------------------------3---------3-----|

e|--------------------------------------------------------------------------------------|
B|------1--------3-0-------0-1---0-1-0------------1-------3---------1--1p0-----0h1------|
G|----2--------0-----------------------2--------2-------0---------2--------2-------2----|
D|--3-------------------2---------------------3-------0---------2------------2-------2--|
A|--------------------0--------0------------------------------0-------------------------|
E|-1--------3-------------------------------1-------3-----------------------------------|

e|-------------------0---------------------1------------------3----0--------------|
B|-------1-------3---1-----1--x----------3---------1--------3------0--------------|
G|-----2-------0-----0--0--2--x-0------2---------2---2-------------1--------------|
D|---3-------0-------2--0--2--x-0-------------------------------------------------|
A|-------------------3--2--0--x-2-------------------------2-----------------------|
E|-1-------3------------3-----x-3----1---------3--------3-------------------------|

e|-----------------------------------------------------------------------------------------|
B|-----------------------------------------------------------------------------------------|
G|---------------------------------------------------------------------------------5*------|
D|-----------------------------------------------------------------------------------------|
A|-7-0-0-0--7-5-0-0-0--8-7-0-0-0--7-5-----5---7-0-0-0--7-5-0-0-0--8-7-0-0-0--7-5-----------|
E|------------------------------------7-8----------------------------------------8---------|
     x x x      x x x      x x x                x x x      x x x      x x x

e|-------------------------------------------------------------------------------------------------|
B|-------------------------------------------------------------------------------------------------|
G|-------------------------------------------------------------------------------------------------|
D|--------------------------------------------------------------------------------------------5h7--|
A|-7-0-0-0--7-5-0-0-0--8-7-0-0-0--7-5-----5---7-0-0-0--7-5-0-0-0--8-7-0-0-0--7-5--------5h7h8------|
E|------------------------------------7-8-----------------------------------------5h7h8------------|
     x x x      x x x      x x x                x x x      x x x      x x x

e|-----------------------------------------------------------------------------------------|
B|-----------------------------------------------------------------------------------------|
G|-----------------------------------------------------------------------------------------|
D|-----------------------------------------------------------------------------------------|
A|-7-0-0-0--7-5-0-0-0--8-7-0-0-0--7-5-----5---7-0-0-0--7-5-0-0-0--8-7-0-0-0--7-7/10-8-7----|
E|------------------------------------7-8--------------------------------------------------|
     x x x      x x x      x x x                x x x      x x x      x x x

e|-----------------------------------------------------------------------------------------|
B|-----------------------------------------------------------------------------------------|
G|------------------------------------------------------------------/5-4-7-5-4~------------|
D|-----------------------------------------------------------------------------------------|
A|-7-0-0-0--7-5-0-0-0--8-7-0-0-0--7-5-----5---7-0-0-0--7-5-0-0-0--8------------------------|
E|------------------------------------7-8--------------------------------------------------|
     x x x      x x x      x x x                x x x      x x x

e|-----------------------------------------------------------------------------------------|
B|-----------------------------------------------------------------------------------------|
G|--------------------------2----------------------------5*----99-77-55-9~-----------------|
D|-3------------------------2------------------------3-----------------------2----9--------|
A|-3--3-3-2222-0000---------0--7-7-5555-3333-7777----3-----------------------2----7--------|
E|-1-----------------3333----------------------------1-----------------------0-------------|
          xxxx xxxx  xxxx          xxxx xxxx xxxx              xx xx xx

e|---------------------------|
B|---------------------------|
G|---------------------------|
D|-9---------10---12---------| x4
A|-7---------8----10-10-10---|
E|---0-0-0-0----0------------|
     x x x x    x

e|------------------------------------------------------------------|
B|------------------------------------------------------------------|
G|------------------------------------------------------------------|
D|-9-----------10-9----------10-9-----------------------------------|
A|-7--7-7-7-7--8--7-7-7-7-7--8--7-7-7-7-7-7-7-7-7-7-7-7-7-7-7-------|
E|------------------------------------------------------------------|
      x x x x       x x x x       x x x x x x x x x x x x x x

Verse
e|-----------------------------------------------------------------------|
B|-----------------------------------------------------------------------|
G|-----------------------------------------------------------------------|
D|-2-------3------2---0--------5-------5-------5-------------------------|
A|-0-------0------0---0---3----3-33333-3-33333-3-33-5------5-7------7----|
E|------------------------1-------------------------3-3333-3-4-4444-4----|
                                 xxxxx   xxxxx   xx   xxxx     xxxx

e|-----------------------------------------|
B|-----------------------------------------|
G|-----------------------------------------|
D|-2----2----------------2----2-----5-7-5--| x2
A|-0-00-0-00-0000-0000---0-00-0-00--3-5-3--|
E|-----------------------------------------|
     xx   xx xxxx xxxx     xx   xx

e|-----------------------------------------------------------------------|
B|-----------------------------------------------------------------------|
G|-----------------------------------------2-----------------------------|
D|-7----5------5------5--------------------2-----------------------------|
A|-5----3-3333-3-3333-3--5----0-2-3---2----0-------3-3-2-2---------------|
E|-----------------------3--------------4------3-3---------3-3-----------|
          xxxx   xxxx                          x x x x x x x x

e|-----------------------------------------------------------------------|
B|-----------------------------------------------------------------------|
G|-----------------------------------------------------------------------|
D|------------------------------------------------------3-3-2-2----------|
A|-3----------------------------------5-------------------------3-3-5----|
E|-1-111-111-111-111-111-111-111-111--3-333-333-333-333------------------|
     xxx xxx xxx xxx xxx xxx xxx xxx    xxx xxx xxx xxx

e|-----------------------------------------------------------------------|
B|-----------------------------------------------------------------------|
G|-------------------4------4------4--------------4--5--7----------------|
D|--5------5------5--2-2222-2-2222-2-22---2----5-------------------------|
A|--3-3333-3-3333-3-----------------------0-------2--3--5----------------|
E|---------------------------------------------3-------------------------|
      xxxx   xxxx      xxxx   xxxx   xx

e|-----------------------------------------------------------------------|
B|-----------------------------------------------------------------------|
G|-2-2-222-2-2-222--2-2-222-2-2-222--4-4444-4-4444-4-44------------------|
D|-3-3-333-3-3-333--4-4-444-4-4-444--5-5555-5-5555-5-55------------------|
A|---------------------------------------------------------2-------------|
E|---------------------------------------------------------0-------------|
     x xxx x x xxx    x xxx x x xxx    xxxx   xxxx   xx

Chorus
e|-------------------------------------------------------------------------------------|
B|-------------------------------------------------------------------------------------|
G|---------7------7------------5------4----------------7-------9*----------------------|
D|---------7------7------------7------5----------------7---------------------5-3-2---2-|
A|-3---5-----0000---0000-0000----0000---000000--3---5----0000-----0000-3-2-3-------5---|
E|-1---3----------------------------------------1---3----------------------------------|
             xxxx   xxxx xxxx    xxxx   xxxxxx           xxxx     xxxx

e|-----------------------------------------------------------------------|
B|-----------------------------------------------------------------------|
G|-----------------------------------------------------------------------|
D|-----------------------------------------------------------------------|
A|-3---5----3---3-2---2-0------8-7-5-5-----------------------------------|
E|-1---3------3-----4----------------------------------------------------|
                               x x x x

e|-----------------------------------------------------------------------|
B|-----------------------------------------------------------------------|
G|-2-2-222-2-2-222--2-2-222-2-2-222--4-4444-4-4444-4-44------------------|
D|-3-3-333-3-3-333--4-4-444-4-4-444--5-5555-5-5555-5-55------------------|
A|---------------------------------------------------------2-------------|
E|---------------------------------------------------------0-------------|
     x xxx x x xxx    x xxx x x xxx    xxxx   xxxx   xx

e|-----------------------------------------------------------------------------------------|
B|-----------------------------------------------------------------------------------------|
G|-----------------------------------------------------------------------------------------|
D|-----------------------------------------------------------------------------------------|
A|-7-0-0-0--7-5-0-0-0--8-7-0-0-0--7-5-----5---7-0-0-0--7-5-0-0-0--8-7-0-0-0--7-7/10-8-7----|
E|------------------------------------7-8--------------------------------------------------|
     x x x      x x x      x x x                x x x      x x x      x x x

e|-----------------------------------------------------------------------------------------|
B|-----------------------------------------------------------------------------------------|
G|-----------------------------------------------------------------------------------------|
D|-----------------------------------------------------------------------------------------|
A|-7-0-0-0--7-5-0-0-0--8-7-0-0-0--7-5-----5---7-0-0-0--7-5-0-0-0--8-7-0-0-0--7-5-----5-----|
E|------------------------------------7-8----------------------------------------7-8-------|
     x x x      x x x      x x x                x x x      x x x      x x x


SOLO Guitar 1.
e|-----------------12-12b13br12-10-12-12-10-12-12/16b17br16--|
B|---------------12------------------------------------------|
G|-------------12--------------------------------------------|
D|-----------14----------------------------------------------|
A|----9h12/15------------------------------------------------|
E|-----------------------------------------------------------|

e|----17p16--------------------------------------------------|
B|-17-------18-17-15h17p15/12-13p12----12--------------------|
G|----------------------------------14-----14-13-------------|
D|-----------------------------------------------15-12-14~---|
A|-----------------------------------------------------------|
E|-----------------------------------------------------------|

Guitar 2.
e|-\17---------------------------------15b17br15-13-15\12----------------|
B|-----/14-14-14b15br14--14b15br14--14-----------------------------------|
G|---------------------14---------14-------------------------------------|
D|-----------------------------------------------------------------------|
A|-----------------------------------------------------------------------|
E|-----------------------------------------------------------------------|

e|----12-13p12-----12-13p12----12-13p12-----12-13p12-----12--17b19br17---|
B|-15-----------15----------15-----------15-----------15-----------------|
G|-----------------------------------------------------------------------|
D|-----------------------------------------------------------------------|
A|-----------------------------------------------------------------------|
E|-----------------------------------------------------------------------|

Guitar 1.
e|-----------------------------------------------------------------------|
B|-----------8-10*---8h10h11-10-8-7h8p7----------------------------------|
G|-11*--7-11-------------------------------------------------------------|
D|-----------------------------------------------------------------------|
A|-----------------------------------------------------------------------|
E|-----------------------------------------------------------------------|

e|-5h2-------2--8p5-------5--11p8--------8--14p11----------11------------|
B|-----4---4--------7---7--------10---10----------13----13---------------|
G|-------5------------8-------------11---------------14------------------|
D|-----------------------------------------------------------------------|
A|-----------------------------------------------------------------------|
E|-----------------------------------------------------------------------|

e|-17p14----------14---20p17----------17-20b22~--------------------------|
B|-------16----16------------19----19------------------------------------|
G|----------17------------------20---------------------------------------|
D|-----------------------------------------------------------------------|
A|-----------------------------------------------------------------------|
E|-----------------------------------------------------------------------|

Guitar 2.
e|---------------------------------------------------------------------------|
B|---------------------------------------------------------------------------|
G|---------------------------------------------------------------------------|
D|--18-17-15-18-17-15-18-17-15-18-17-15-18-17-15-18-17-15-18-17-15-18-17-15--|
A|---------------------------------------------------------------------------|
E|---------------------------------------------------------------------------|


e|--15-15-15h16p15p13----15p13-------13--------------------------------------|
B|--------------------16-------16-15----16-15-13-16-15-13-12-13--------------|
G|---------------------------------------------------------------------------|
D|---------------------------------------------------------------------------|
A|---------------------------------------------------------------------------|
E|---------------------------------------------------------------------------|

e|----------------------------------------------|
B|--------------15-------------------(17)-------|
G|-----------15-------------16-17-19------------|
D|--14-15-17-------15-17-19---------------------|
A|----------------------------------------------|
E|----------------------------------------------|


Guitar 1. (Starts When Guitar 2. is at 17th fret on B string)
e|----------------------------------------------------------------------------------|
B|-(13)------------12----12-15b17br15--12-13---13-13-13--13-15-15b17-15-13-12-13----|
G|--------10-12-14----12------------------------------------------------------------|
D|-----14---------------------------------------------------------------------------|
A|----------------------------------------------------------------------------------|
E|----------------------------------------------------------------------------------|

Guitar 2. Harmony with Guitar 1. (Starting at 14th fret on D string)
e|----------------------------------------------------------------------------------|
B|-------------15----15--18b20-18-15-17---17-17-17--17-18-18b20-18-17-15-17-15------|
G|----14-16-17----16-----------------------------------------------------------17~--|
D|-17-------------------------------------------------------------------------------|
A|----------------------------------------------------------------------------------|
E|----------------------------------------------------------------------------------|

Guitar 1.
e|----------------------------------------------------------------------------------|
B|--------------------------------------/15-13-12--------15b17br15-13-12-15-15b17---|
G|-----------17~------/14-16-17-14~---------------12--------------------------------|
D|-/15-14-15------------------------------------------------------------------------|
A|----------------------------------------------------------------------------------|
E|----------------------------------------------------------------------------------|

Guitar 2. (Played right after above, kinda like an echo or delay)
e|----------------------------------------------------------------------------------|
B|---------------------------------------------15-18b20br18-17-15-17-18-18b20-------|
G|-----------17~------/14-16-17-14~------16-17--------------------------------------|
D|-/15-14-15------------------------------------------------------------------------|
A|----------------------------------------------------------------------------------|
E|----------------------------------------------------------------------------------|

Guitar 1.
e|-------------------16-17-19-22b24br22-19-22-20-20--19-20-22-24-24b26br24-22-24-20~--|
B|----------------15------------------------------------------------------------------|
G|-17-17-17-16-17---------------------------------------------------------------------|
D|------------------------------------------------------------------------------------|
A|------------------------------------------------------------------------------------|
E|------------------------------------------------------------------------------------|

Guitar 2.
e|-------------------16-17-19-22b24br22-19-22-20-20--19-20-22-24-24b26br24-22-24------|
B|----------------15------------------------------------------------------------------|
G|-17-17-17-16-17---------------------------------------------------------------------|
D|------------------------------------------------------------------------------------|
A|------------------------------------------------------------------------------------|
E|------------------------------------------------------------------------------------|

Guitar 1.
e|-t17p13p10--t19p13p10--t20p13p10--t19p13p10--t17p13p10--t19p13p10--t20p13p10--|
B|------------------------------------------------------------------------------|
G|------------------------------------------------------------------------------|
D|------------------------------------------------------------------------------|
A|------------------------------------------------------------------------------|
E|------------------------------------------------------------------------------|

Guitar 2. (Played right after above)
e|-t20p13p10--t19p13p10--t20p13p10--t19p13p10--t17p13p10--t19p13p10--t20p13p10--|
B|------------------------------------------------------------------------------|
G|------------------------------------------------------------------------------|
D|------------------------------------------------------------------------------|
A|------------------------------------------------------------------------------|
E|------------------------------------------------------------------------------|

Guitar 1.
e|-15-17-19-15-19-15-17-19-20-19-17----------------------------------------17-19-20~---|
B|----------------------------------20-18-17----------------------17-18-20-------------|
G|-------------------------------------------19-17-16----16-17-19----------------------|
D|----------------------------------------------------19-------------------------------|
A|-------------------------------------------------------------------------------------|
E|-------------------------------------------------------------------------------------|

Guitar 2.
e|-19-20-22-19-22-19-20-22-24-22-20---------------------------------------20-22-24~----|
B|----------------------------------24-22-20---------------------20-22-24--------------|
G|-------------------------------------------22-21-19---19-21-22-----------------------|
D|----------------------------------------------------22-------------------------------|
A|-------------------------------------------------------------------------------------|
E|-------------------------------------------------------------------------------------|

SOLO RHYTHM
e|---------------------------------------------------------------------------|
B|---------------------------------------------------------------------------|
G|---------------------------------------------------------------------------|
D|---------------------------------------------------------------------------|
A|-2--------------------------5-5-2--------------------------5-5-------------|
E|-0-000000000000000000000000-3-3-0-000000000000000000000000-3-3-------------|
     xxxxxxxxxxxxxxxxxxxxxxxx       xxxxxxxxxxxxxxxxxxxxxxxx

e|---------------------------------------------------------------------------|
B|---------------------------------------------------------------------------|
G|---------------------------------------------------------------------------|
D|----------------------------5-5----------------------------5-5-------------|
A|-7--------------------------3-3-7--------------------------3-3-------------|
E|-5-555555555555555555555555-----5-555555555555555555555555-----------------|
     xxxxxxxxxxxxxxxxxxxxxxxx       xxxxxxxxxxxxxxxxxxxxxxxx

e|---------------------------------------------------------------------------|
B|---------------------------------------------------------------------------|
G|---------------------------------------------------------------------------|
D|-7--------------------------8-8-7---------------------------8-8------------|
A|-5-555555555555555555555555-6-6-5-5555555555555555555555555-6-6------------|
E|---------------------------------------------------------------------------|
     xxxxxxxxxxxxxxxxxxxxxxxx       xxxxxxxxxxxxxxxxxxxxxxxxx

e|---------------------------------------------------------------------------|
B|---------------------------------------------------------------------------|
G|---------------------------------------------------------------------------|
D|----------------------------3-3-----------------------------3-3------------|
A|-5--------------------------1-1-5---------------------------1-1------------|
E|-3-333333333333333333333333-----3-3333333333333333333333333----------------|
     xxxxxxxxxxxxxxxxxxxxxxxx       xxxxxxxxxxxxxxxxxxxxxxxxx

e|--------------------------------------|
B|--------------------------------------|
G|--------------------------------------|
D|-5-----5-----2------------------------|
A|-3-----2-----0-----5-----3-------5----|
E|-------------------3-----1-------3----|

e|---------------------------------------|
B|---------------------------------------|
G|---------------------------------------|
D|-5-----5-----2-------------------------|
A|-3-----2-----0-----5-----3---5---5-----|
E|-------------------3-----1---2---3-----|

After solo
e|--------------------------------------------------------------------------|
B|--------------------------------------------------------------------------|
G|-------------------------------------------------------------5*-----------|
D|----------5--5--2----------------2------2--------5-5-3-3-2-2--------------|
A|-3---5----3--2--0---5---3---5----0-0000-0-0000----------------------------|
E|-1---3--------------3---1---3---------------------------------------------|
                                     xxxx   xxxx

e|------------------------------------------------------------------------------|
B|------------------------------------------------------------------------------|
G|------------------------------------------------------------------------------|
D|-10--------------------12--------------------------------------5--5--2--------|
A|-8-8888888888888888----10-10101010101010101010101010101010-----3--2--0--5-----|
E|------------------------------------------------------------------------3-----|
     xxxxxxxxxxxxxxxx       xxxxxxxxxxxxxxxxxxxxxxxxxxxxxxxx

e|------------------------------------------------------------------------------------------|
B|------------------------------------------------------------------------------------------|
G|-----------------------------------------------------------------------7h9----------------|
D|--7--------------------9--------------------10-------------------7h9h10-------------------|
A|--5-5555555555555555---7-7777777777777777---8-88888888----7h9h10--------------2-LET-RING--|
E|------------------------------------------------------------------------------0-LET-RING--|
      xxxxxxxxxxxxxxxx     xxxxxxxxxxxxxxxx     xxxxxxxx

e|-----------------------------------------------------------------------|
B|-----------------------------------------------------------------------|
G|-----------------------------------------------------------------------|
D|-14--14-14---12--12-12---10-10-10--9--9-9------------------------------|
A|-12--12-12---10--10-10---8--8--8---7--7-7----3-------------------------|
E|-----------------------------------------------3-----------------------|
        x x         x x       x  x      x x

e|-----------------------------------------------------------------------|
B|-----------------------------------------------------------------------|
G|-----------------------------------------------------------------------|
D|--------------------------------------5-----------2--------------------|
A|-3--3-3-3-3-3-3---5-5-5-5-------2--3----3-2---2-0---0-----5--5-5--5----|
E|-1--1-1-1-1-1-1---3-3-3-3---3h5-------------4----------3--3--3-3--3----|
      x x x x x x   x x x x                                 x x  x  x

e|-------------------------------------------------|
B|-------------------------------------------------|
G|-------------------------------------------------|
D|------------------------5-5-3-3-2-2--------------|
A|---3---3-3--3-3--3--5---------------5-5----------|
E|-1---1-1-1--1-1--1--3--3-------------------------|
         x x  x x  x

e|-------------------------------------------------------------|
B|-------------------------------------------------------------|
G|-------------------------------------------------------------|
D|-5--5-5-5-5-5-5---6---7---9--------------------2-3-2---------|
A|-3--3-3-3-3-3-3----------------7----------3-5--------5-------|
E|------------------4---5---7----5-5-5--5-3--------------------|
      x x x x x x                  x x

e|------------------------------------------------------|
B|------------------------------6---5-------------------|
G|-5---4---5----7---5---7---7-----------7---4-5-7-------|
D|---3---3---3----4---4---4---5---5---5---5-------------|
A|------------------------------------------------------|
E|------------------------------------------------------|
      x   x   x    x   x   x   x   x   x   x

e|---------------------------------------------------------12--|
B|------9h10p9---------9h10p9---------9h109p----------9h10-----|
G|----9--------9-----9--------9-----9--------9------9----------|
D|--9--------------9--------------9---------------9------------|
A|-------------------------------------------------------------|
E|-------------------------------------------------------------|

CLEAN
e|--------------------------------------------------------------------------------------|
B|------1--------3-0-------0-1---0-1-0------------1-------3---------1--1p0-----0h1------|
G|----2--------0-----------------------2--------2-------0---------2--------2-------2----|
D|--3-------------------2---------------------3-------0---------2------------2-------2--|
A|--------------------0--------0------------------------------0-------------------------|
E|-1--------3-------------------------------1-------3-----------------------------------|

e|-------------------0---------------------1------------------3----0--------------|
B|-------1-------3---1-----1--x----------3---------1--------3------0--------------|
G|-----2-------0-----0--0--2--x-0------2---------2---2-------------1--------------|
D|---3-------0-------2--0--2--x-0-------------------------------------------------|
A|-------------------3--2--0--x-2-------------------------2-----------------------|
E|-1-------3------------3-----x-3----1---------3--------3-------------------------|

CHORUS
e|-------------------------------------------------------------------------------------|
B|-------------------------------------------------------------------------------------|
G|---------7------7------------5------4------------------------------------------------|
D|---------7------7------------7------5---------------------------2--5-3-2-0-2-0---0---|
A|-3---5-----0000---0000-0000----0000---000000--3---5---0-0-2-3-5----------------3-----|
E|-1---3----------------------------------------1---3----------------------------------|
             xxxx   xxxx xxxx    xxxx   xxxxxx          x x

e|---------------------------------------------------------------------|
B|---------------------------------------------------------------------|
G|-----------------------------5*--------------------------------------|
D|-----------------------2---------------------------------------------|
A|-3---5----3---3-2---2--0---------------------------------------------|
E|-1---3------3-----4--------------------------------------------------|

e|---------------------------------------------------------------------|
B|---------------------------------------------------------------------|
G|-2-2-222-2-2-222--2-2-222-2-2-222--4-4444-4-4444-4-44----------------|
D|-3-3-333-3-3-333--4-4-444-4-4-444--5-5555-5-5555-5-55----------------|
A|---------------------------------------------------------2-----------|
E|---------------------------------------------------------0-----------|
     x xxx x x xxx    x xxx x x xxx    xxxx   xxxx   xx

ENDING
e|-----------------------------------|
B|-----------------------------------|
G|-----------------------------------|
D|-----------------------------------|
A|--3-----5-----7------3-----5-------|
E|--1-----3-----5------1-----3-------|

e|-----------------------------------------------------------------------------------------|
B|-----------------------------------------------------------------------------------------|
G|-----------------------------------------------------------------------------------------|
D|-----------------------------------------------------------------------------------------|
A|-7-0-0-0--7-5-0-0-0--8-7-0-0-0--7-5-----5---7-0-0-0--7-5-0-0-0--8-7-0-0-0--7-7/10-8-7----|
E|------------------------------------7-8--------------------------------------------------|
     x x x      x x x      x x x                x x x      x x x      x x x

e|-----------------------------------------------------------------------------------------|
B|-----------------------------------------------------------------------------------------|
G|---------------------------------------------------------------------------------5*------|
D|-----------------------------------------------------------------------------------------|
A|-7-0-0-0--7-5-0-0-0--8-7-0-0-0--7-5-----5---7-0-0-0--7-5-0-0-0--8-7-0-0-0--7-5-----------|
E|------------------------------------7-8----------------------------------------8---------|
     x x x      x x x      x x x                x x x      x x x      x x x
Tap to rate this tab
 
# A B C D E F G H I J K L M N O P Q R S T U V W X Y Z