Song name
# A B C D E F G H I J K L M N O P Q R S T U V W X Y Z

Babys - Jinetes En El Cielo tab

e---------------------------------|
B---------------------------------|
G---------------------------------|
D---------------------------------|
A-----0-0-0-0-2-3-3-3-0-----------|
E---3-------------------3-3-3-0-3-|

e---------------------------------|
B---------------------------------|
G---------------------------------|
D-----------------------2-2-2---2-|
A-----0-0-0-0-2-3-3-3-3-------3---|
E---3-----------------------------|

e---------------------------------|
B---------------------------------|
G-----------------------2-2-2-----|
D-----0-0-0-0-2-3-3-3-3-------3---|
A-------------------------------3-|
E---3-----------------------------|

e--------------------------------|
B--------------------------------|
G--------------------------------|
D--------------------------------|
A---3-2-0---3-2---3-2-0----------|
E---------------3----------------|
Tap to rate this tab
 
# A B C D E F G H I J K L M N O P Q R S T U V W X Y Z