Song name
# A B C D E F G H I J K L M N O P Q R S T U V W X Y Z

Babyshambles - Unstokkie tab

Tabbed by: Rinske
My first tab ^^ 
Intro:
e|------------------------------------------------------|
B|------------------------------------------------------|
G|--7-7777-6-7-11-7-16-16-16-11-11-14-14-14-14-11-11-11-| REPEAT
D|--0-0000-0-0-0—-0-0--0--0--0--0--0--0--0--0--0--0--0--| 2X
A|------------------------------------------------------|
E|------------------------------------------------------|

e|---------------------------------------------------------------------|
B|---------------------------------------------------------------------|
G|--12-12-12-12--11-11-11-12-12-12-12--11-11-11-12-12-12-12-11-11-11-7-|
D|--0--0--0--0---0--0--0--0--0--0--0---0--0--0--0--0--0--0--0--0--0--0-|
A|---------------------------------------------------------------------|
E|---------------------------------------------------------------------|
Verse:
“You smoke your cigarettes...”
e|-----------------------------------------------------------------------------|
B|-----------------------------------------------------------------------------|
G|--7-7777-6-7-11-11-11-7-16-16-16-11-11-14-14-14-14-11-11-12-12-12-12-11-11-7-| REPEAT
D|--0-0000-0-0-0—-0--0--0-0--0--0--0--0--0--0--0--0--0--0--0—-0—-0--0--0--0--0-| 2X
A|-----------------------------------------------------------------------------|
E|-----------------------------------------------------------------------------|
Chorus: 
             D        A
Well, they sold my name
             D        A
after they stole my shame
   D        A
Sold my name,  
   E
Ah yeah
    D        A
Tumbled my game, 
    D        A
Tumbles their game, 
   D        A
Got a tablet sized brains,   
  E
Yeah

VERSE REPEAT
CHORUS REPEAT


Bridge:
“Or is it really such a sin though?”
e|----2--2--0--0-9--9--9--9--9---|
B|----3--2--0--0-10-10-10-10-10--|
G|----4--3--0--0-9--9--9--9--9---| REPEAT 4X
D|----4--4--2--2-0--0--0--0--0---|
A|----2--4--2--2-----------------|
E|----x--2--0--0-----------------|

“One hand is sailing”

        D	     C           Bm					    
e|------5--------3-----------2------------|
B|------6--------4-----------3------------|
G|------7--------5-----------4------------|
D|------7--------5-----------4------------|
A|------5--------3-----------2------------|
E|------5--------3-----------2------------|

VERSE & INTRO again
Outro:
e|-------------------------------------------|
B|-------------------------------------------|
G|--7-7777-6-7-11-11-11-11-11-11-14-14-14-14-|
D|--0-0000-0-0-0--0--0--0--0--0--0--0--0--0--|
A|-------------------------------------------|
E|-------------------------------------------| until end.
Tap to rate this tab
# A B C D E F G H I J K L M N O P Q R S T U V W X Y Z