Song name
# A B C D E F G H I J K L M N O P Q R S T U V W X Y Z

Babyshambles - Maybelline tab

-------------------------------------------------------------------------------
			     Maybelline - Pete Doherty
-------------------------------------------------------------------------------
Tabbed by: Rahaiz
Email: raezzt@gmail.com

Tuning: Standard


This is my tablature (well the main riffs) for the all-new Doherty's little song 
also known as "ill kill him" on YouTube.
Link to the video clip: http://www.youtube.com/watch?v=qZ-ma77E0fg
The movie shows Pete being strangled by Irina Lazareanu in an imaginary France Albion hotel.

Listen to the song to get the rythm.

------
Chorus
------

  G   B#  Em  C
e|3---2---7---3------------------|
B|4---3---8---5------------------|
G|5---4---9---5------------------|
D|5---4---9---5------------------|
A|3---2---7---3------------------|
E|3---2---7---3------------------|
Maybelline Maybelline...


-----
Verse
-----

  G   D   Em  ?  D
e|3---5---7---7---5---------------|
B|4---7---8---7---7---------------|
G|5---7---9---8---7---------------|
D|5---7---9---9---7---------------|
A|3---5---7---9---5---------------|
E|3---5---7---7---5---------------|

And then again, repeat.
Not sure about the rest of the song, might update later.. but that's for the main riffs.

raezzt@gmail.com for suggestions

Alex R.

===============================================================================
Tap to rate this tab
# A B C D E F G H I J K L M N O P Q R S T U V W X Y Z