Song name
# A B C D E F G H I J K L M N O P Q R S T U V W X Y Z

Babyshambles - Shotters Nation tab

Shotters Nation Album Tab
Enjoy~!

1:Carry on up the morning

Tuning: Standard



Chords:

  Bm       B       G     Gmaj7*     A6      G6       E       C        D

e|---|  e|-7-|  e|-3-|  e|----|  e|-9--|  e|-7-|  e|-7-|  e|-8--|  e|-10-|
B|-7-|  B|-7-|  B|-3-|  B|-8--|  B|-10-|  B|-8-|  B|-9-|  B|-8--|  B|-10-|
G|-7-|  G|-8-|  G|-4-|  G|----|  G|-9--|  G|-7-|  G|-9-|  G|-9--|  G|-11-|
D|-9-|  D|-9-|  D|-5-|  D|-9--|  D|-11-|  D|-9-|  D|-9-|  D|-10-|  D|-12-|
A|-9-|  A|-9-|  A|-5-|  A|-10-|  A|-9--|  A|-7-|  A|-7-|  A|-10-|  A|-12-|
E|---|  E|-7-|  E|-3-|  E|----|  E|-9--|  E|-7-|  E|---|  E|-8--|  E|-10-|

*Slight variation on a Gmaj7, finger on B string is moved from 7th to 8th fret.


Intro:

Lead Guitar

e|-------------------------------------------|
B|-------------------------------------------|
G|-b9-b9-b9-9-7------------------------------|
D|--------------9---------------b9-----------|
A|--------------------9-9-10-10--------------|
E|----------------7-7------------------------|

e|-------------------------------------------|
B|-8h12r-10-10-x-10-x-8-7--------------------|
G|--------------------------7---b9-b9-b9-v9--|
D|------------------------9---9--------------|
A|-------------------------------------------|
E|-------------------------------------------|

e|-------------------------------------------|
B|-10-10-10-8-7------------------------------|
G|----------------7---x--0-------------------|
D|--------------9---9-x----9s----------------|
A|-------------------------------------------|
E|-------------------------------------------|


e|-------------------------------------------|
B|-8h12r-10-10-x-10-x-8-7--------------------|
G|--------------------------7---b9-b9-b9-----|
D|------------------------9---9--------------|
A|-------------------------------------------|
E|-------------------------------------------|

e|-------------------------------------------|
B|-7h8h8--10-8-------------------------------|
G|-------------------------------------------|
D|-------------------------------------------|
A|-------------------------------------------|
E|-------------------------------------------|

Rhythm Guitar

Mute strings to the rhythm, throwing in some muffled Bm and Gmaj7 chords

Then...

e|------------------777-7--9-x9-x7-----------|
B|-7-7-7-7------8---888-8--10x10x8-----------|
G|-7-7-7-7-------------------x--x------------|
D|-9-9-9-9---9--9---999-9--11x11x9-----------|
A|-9-9-9-9---10-10--777-7--9-x9-x7-----------|
E|-------------------------------------------|

0
e|-------------7-7-7-------------------------|
B|-7-7-7-7-----8-8-8-------------------------|
G|-7-7-7-7-----------------------------------|
D|-9-9-9-9-----9-9-9-------------------------|
A|-9-9-9-9-----7-7-7-------------------------|
E|-------------------------------------------|

Verse: C D E A - then repeat this: Bm Gmaj7 E A6

Pre Chorus: B G

Bridge: D A6 Gmaj7

These chords are repeated throughout the song, easy to work out the strumming pattern.

Chorus: Ad-lib the intro riff
 
Outro: Bm Gmaj7 A A6 - repeat twice then end on - D



| s  slide out of note
| h  hammer-on
| p  pull-off
| v  vibrato
| x  Mute note
===============================================================================


2: Delivery

Babyshambles - Delivery

Intro lead
E-10-----10----10-----10------|
B---11-----11----11-----11----|
G-----12-----12----12-----12--|
D-----------------------------| x4
A-----------------------------|
E-----------------------------|

Intro Rhythm
 G   F G   F G   F G Bb
-3-x-1-3-x-1-3-x-1-3-6---|
-3-x-1-3-x-1-3-x-1-3-6---|
-4-x-2-4-x-2-4-x-2-4-7---| X2
-5-x-3-5-x-3-5-x-3-5-8---|
-5-x-3-5-x-3-5-x-3-5-8---|
-3-x-1-3-x-1-3-x-1-3-6---|

Verse
 G   F G   F G   F G Bb G   F G   F G   F G Bb Cm  Bm Bbm
-3-x-1-3-x-1-3-x-1-3-6-|3-x-1-3-x-1-3-x-1-3-6-|3---2---1-|
-3-x-1-3-x-1-3-x-1-3-6-|3-x-1-3-x-1-3-x-1-3-6-|4---3---2-|
-4-x-2-4-x-2-4-x-2-4-7-|4-x-2-4-x-2-4-x-2-4-7-|5---4---3-|
-5-x-3-5-x-3-5-x-3-5-8-|5-x-3-5-x-3-5-x-3-5-8-|5---4---3-|
-5-x-3-5-x-3-5-x-3-5-8-|5-x-3-5-x-3-5-x-3-5-8-|3---2---2-|
-3-x-1-3-x-1-3-x-1-3-6-|3-x-1-3-x-1-3-x-1-3-6-|3---2---1-|

Chorus Rhythm
 Cm        F         Bb        D
-3-3-3-3-3-1-1-1-1-1-6-6-6-6-6-10-10-10-10-10--|
-4-4-4-4-4-1-1-1-1-1-6-6-6-6-6-10-10-10-10-10--|
-5-5-5-5-5-2-2-2-2-2-7-7-7-7-7-11-11-11-11-11--|
-5-5-5-5-5-3-3-3-3-3-8-8-8-8-8-12-12-12-12-12--| x2
-3-3-3-3-3-3-3-3-3-3-8-8-8-8-8-12-12-12-12-12--|
-3-3-3-3-3-1-1-1-1-1-6-6-6-6-6-10-10-10-10-10--|

Chorus Lead
--3----1----6-----10------|
-4-4--1-1--6-6--10--10----|
----5----2----7-------11--| x2
--------------------------|
--------------------------|
--------------------------|

Solo Rhythm
G   F G   F G   F G Bb G   F G   F G   F G Bb Cm  Bm Bbm
-3-x-1-3-x-1-3-x-1-3-6-|3-x-1-3-x-1-3-x-1-3-6-|3---2---1-|
-3-x-1-3-x-1-3-x-1-3-6-|3-x-1-3-x-1-3-x-1-3-6-|4---3---2-|
-4-x-2-4-x-2-4-x-2-4-7-|4-x-2-4-x-2-4-x-2-4-7-|5---4---3-|
-5-x-3-5-x-3-5-x-3-5-8-|5-x-3-5-x-3-5-x-3-5-8-|5---4---3-|
-5-x-3-5-x-3-5-x-3-5-8-|5-x-3-5-x-3-5-x-3-5-8-|3---2---2-|
-3-x-1-3-x-1-3-x-1-3-6-|3-x-1-3-x-1-3-x-1-3-6-|3---2---1-|

Solo
------------------------------------------------|
------------------------------------------------|
-12--12--12-12-12-10--10-12-10---------10--10---|
--------------------12--------12-10-12---12-----|
------------------------------------------------|
------------------------------------------------|

------------------------------3-6hp3-3-6hp3---------|
--------------------------6-6---------------5-3-----|
-5--5--5-5-5-3-3-----3-------------------------5b-3-|
--------------5-5-3-5-5-----------------------------|
----------------------------------------------------|
----------------------------------------------------|

Interlude
-3--3----1--6--3--3----1-1-6-6-|
-4-4--4--1--6--4-4-4---1-1-6-6-|
-5-----5-2--7--5----5--2-2-7-7-|
-5-------3--8--5-------3-3-8-8-|
-3-------3--8--3-------3-3-8-8-|
-3-------1--6--3-------1-1-6-6-|

-3--3----1--6--3--3----1-1-1-1-6-6-6-|
-4-4--4--1--6--4-4-4---1-1-1-1-6-6-6-|
-5-----5-2--7--5----5--2-2-2-2-7-7-7-|
-5-------3--8--5-------3-3-3-3-8-8-8-|
-3-------3--8--3-------3-3-3-3-8-8-8-|
-3-------1--6--3-------1-1-1-1-6-6-6-|

----------------------------------------------------

3: You Talk

Intro |A |F#m |A |F#m | 
|A |F#m |Bm E |C# D | 

|A |F#m |Bm E |C# D | 
You talk, you talk a good game 
Wish I could talk the same 
A song is just a game I'm getting good at cheating at 

|A |F#m |Bm E |C# D | 
You talk, yes you talk a good game 
Won't you teach me the same 
Oh I'd love to explain, like showing your hand and all about 

G#/A (x8) 
Oh well I know, I know, I know, I know and so and so and so 
So what I suppose it's got to 

|G |D |Em |F |D | 
Oh well I never said it was clever 
I just like gettinh leathered 
Looking for the light the light behind your eyes 

|A |F#m |Bm E |C# D | 
You talk, you talk a good game 
Wish I could talk the same 
A song is just a game I'm getting good at cheating at 

|A |F#m |Bm E |C# D | 
Utah, remember Utah in the rain 
And those little red shoes and some kid with the blues 
Who gets right on your tits, you just grin and bear it 

G#/A (x8) 
Oh well I know, I know, I know, I know it's wrong and so and so and so 
So what I suppode it's got to 

|G |D |Em |F |D | 
Oh well I never said it was clever 
I just like gettinh leathered 
Looking for the light the light behind your eyes 

|G |D |Em |F |D | 
Bevan, he drops stones from heaven L O R D for ever 
And the love, the love behind your eyes 

|A A G#m Gm |F#m F#m Gm G#m| (x4) 
You talk, you talk a good game 
You talk, you talk a good game 
You talk, you talk a good game 
You talk, you talk a good game 

|G |D |Em |F |D | 
Wll I never. ever said it was clever 
I just like getting leathered looking for the light 
the light behind your eyes 

|G |D |Em |F |D | 
Bevan, he drops stones from heaven L O R D for ever 
And the love behind your eyes 
-----------------------------------------------------

4: Unbilotitled

Intro

1--5--5-----5-----5-----5--------------------------------------------3--|
2--7--7--7--7--7--7--7--7--3--5-5--3--5--3---------5--5--5--5-----5--3--|
3--7--7-----7-----5-----7-----5-5-----5------5--2--5--5--5--5--2--5--4--|
4--------------------------------------------------------------------5--|
5--------------------------------------------------------------------5--|
6--------------------------------------------------------------------3--|


1----------------------2--2—h3--5-2-2-2-2-2-0-0-0-0------0--------0----------|
2----------------------3----------------------------------------------1------|
3----------------------2---------------------------5-h2-2--5-h2—2-----0------|
4----0--h2--0----0--2-------------------------------------------------2------|
5---------------------------------------------------------------------3------|
6--3--------------3----------------------------------------------------------|

Verse

1--2--------2--2-------3-2-------5---3-----------3----------------------|
2--3--3-----------3---------3--------4--4----4---3-3--------------------|
3--2-----2-----------2---------2-----4----4------4----4-----------------|
4------------------------------------4------4----5-------5--------------|         x2
5------------------------------------3-----------5----------------------|
6------------------------------------3-----------3----------------------|

Chorus

   G                                    D                         C

1----------------------------------------5--3--2-----3--2----------------------|
2--------------------------------------------------5---------5--2--------------|
3------------------------------------------------------------------------------|
4---------------------------------------------------------------------------5--|
6------------------------------------------------------------------------------|

Random solo that’s played a couple of times

1---------------------------------------------------------------------------|
2---7--5--5--5--------------------------------------------------------------|
3-----------------7--7--5--5---5--------------------------------------------|
4----------------------------7----5-----------------------------------------|
5---------------------------------------------------------------------------|

Whistling bit - C
----------------------------------------------------------------------------

6:Side of the road

This tab is 100% accurate.This is the way Peter plays the song


D*(X53335)
F*(X81010108)
C*(X35553)
A*(X77655)
G*(X55433)
F(X33211)
D(X00232)
C(X32010)
G(320003)
A(002220)


D*       F*        C*     D*
I'm half dead I'm a third alive
D*           C*            A*      
A quarter ticking over in the middle
G*           F          D*
By the side of the road

D*       F*        C*        D*
Don't get surrounded by people you hate
D*           C*            A*     
Who choke you out the house down the 
G*           F*       
Path and out the carden gate

D      C
All in or never
G             A
We're worse when we're together
D           C
White punks on dope
G           A
Spewin on the side
D           C
With the fans and the bands
G           A
And the gangs and the tramps
D           C
The monkey man can't hide
G             A
What the little girl will find

D*       F*        C*     D*
What is that your doing to me
D*          C*           A*           G*           F
I don't know what i know what i know it's like electricity

D      C
All in or never
G             A
We're worse when we're together
D           C
White punks on dope
G           A
Spewin on the side
D           C
With the fans and the bands
G           A
And the gangs and the tramps
D           C
The monkey man can't hide
G             A
What the little girl will find

Solo: D,C,G,A



D*       F*        C*     D*
I'm half dead I'm a third alive
D*           C*            A*      
A quarter ticking over in the middle
G*           F          D*
By the side of the road

--------------------------------------------------

6: Crumb begging

E----------------------------|
B----------------------------|
G—---------------------------|
D—---------------------------|
A—----7-------5--------------|
E--0-----5h7----------3------| x3

E----------------------------|
B----------------------------|
G—---------------------------|
D—---------------------------|
A—----7-----9--9--9--9--9--9-|
E--0-------------------------| x1


E G, E G, E G, E G


E G     E  G              E  G    E  G
Don't      take me for no sunbeam
E G     E  G              E        G       E      G
Don't      take me for no sunbeam, sunbeam, sunbeam

C#                     D                       C#
Just Another faction of Like Another fraction of Another tax out of your
B
Life

E G     E  G              E  G    E  G
Don't      take me for no sunbeam
E G     E  G              E        G       E      G
Don't      take me for no sunbeam, sunbeam, sunbeam

      E             G       E G     E G  E   G
I'm a crumb begging baghead baby yeah
  E             G       E  G
A Crumb begging baghead baby yeah
E        G          E          G
Bet you say that to all of the girls

C#                       D                           C#
All of the long lost wars Any cause is worth dying for

What passing bells for those who die like cattle
B
Again again again again, now

E G     E  G              E  G     E  G
Don't      take me for no sunbeam
E G     E  G              E        G       E      G
Don't      take me for no sunbeam, sunbeam, sunbeam

      E             G       E G     E G  E   G
I'm a crumb begging baghead baby yeah         yeah
  E             G       E  G
A Crumb begging baghead baby yeah
E        G          E          G
Bet you say that to all of the girls

C#               D                       C#
If you ever smile  In the street, crocodiles I doubt you'd ever smile
B
Again

     E       E
Now, don't

Solo:
E G, E G, E G, E G
E G, E G, E G, E G
E G, E G, E G, E G
E G, E G, E G, E G
E
-----------------------------------------------------------------------------

7:Unstookietitled

RPT ONCE
------------------------------------I------------------------------------------|
--3---3---2h3--2---3s7---7---10--10-I-12----12---12---7--7---11--11--11--7--7--|
--------0--------------0--------0---I------------------------------------------|
----0------------------------------0I-----0--------------------0---------------|
--2---2---0h2--0---2s5---5---9---9--I-10----10---10---5--5---9---9----9--5--5--|
------------------------------------I------------------------------------------|

--3---3----2--3-2--2--------------------|
--3---3----3--3-3--3--------------------|
--0---0----2--2-2--2--------------------|
----0---0----------0--------------------|
-----------0----------------------------|
--3---3---------------------------------|

THIS RIFF PLAYS THROUGHOUT
BUT IF YOU HAVE 2 GUITARS ADD THESE CHORDS ON TOP

               Bm             A           D
You smoke your cigarettes all down to the bone,
    Bm     D
You bow to vac it,
    A      D
You vow to back it,
       G              A           D
Oh you vow to back it all the way home.

(REPEAT)

    D        A
She calls my name,
D        A
Calls my name,
    D        A
She calls my name,
   E
Oh yeah.

RIFF (AGAIN!....)
               Bm             A           D
You smoke your cigarettes all down to the bone,
    Bm     D
You bow to vac it,
    A      D
You vow to back it,
       G              A           D
Oh you vow to back it all the way home.

  D        A
She calls my name,
D        A
Calls my name,
    D        A
She calls my name,
   E
Oh yeah.
(E)
Back when I am truly single...

then:

e|----2--2-1-0--0-9--9--9--9--9--7-|
B|----3--2-1-0--0-10-10-10-10-10-8-|
G|----4--3-2-0--0-9--9--9--9--9--7-| REPEAT X 3
D|----4--4-3-2--2-0--0--0--0--0--0-|
A|-2--2--4-3-2--2------------------|
E|----x--2-1-0--0------------------|

D      C     Bm SOLO LIKE FUCK 4EVA INTRO
----------------------------------------------

8:French Dog Blues

Intro: (first only bass, then) 
      D D
      D F  x5

D                         Bm
I model lacklustre panicky in vain search for the remedy
F#m    G            F#m      Bb       A
No words only melody come so I take the day off
D                         Bm
My love, my love, she sits with me, I love, I love her company
F#m      G        F#m         Bb        A
Raindrops on roses and dust-filled trinkets
D                G               D
So, this washes over you
G
my French dog blues
F#m      G    F#m    Bb        A    D
Chien bleu chien franzosischer hund
F                       D
And the French dog blues
F                       D
And the French dog blues
F                       D
By the French dog blues

F                       D

D                         Bm
Never surrender to flattery,Frown on, come down on duplicity
F#m      G        F#m         Bb        A
And above all things my son…take the money and run
D                              Bm 
I still model lacklustre panicky in vain search for the remedy
F#m      G        F#m         Bb        A
No words only melody came,ah, take another day off
D                    G          D
Oh, this washes over you
G         
French dog blues
F#m      G        F#m     Bb    A
Chien bleu chien franzosischer hund

middle: D E G A

        D         E   G   A
Yeah, I see you
D                                  E
I only ever wanted the one with the flag
G                                  A
All you ever wanted was a 60 dollar bag
D                                        E               G
And a cheap limousine for your deep pile dreams on the highway
A 
on the highway,highway, oh

Solo: D  Bm  D  Bm

F#m    G    F#m     Bb    A    D
Chien bleu chien franzosischer hund
F                     D
And the French dog blues
F                     D
And the French dog blues
F                     D
Well, the French dog blues
F               D
And the French dog

-------------------------------------------------------------

9: There she goes

Em 	Am  x2
Em        Am                Em                            Am
I do declare I was surprised to see you stay
                       D                                      G			   C	  B7
only to be betrayed by the one you gave all your love and trust to
Em		      Am           Em
tell me how could I let go
  		Am			   D
Since I caught a glimpse of your immense soul
 	    G		           C	
You were dancing to northern soul
 	 B7				C7	B7
Just one glance, and well you know...

Em		            Am		Em
There she goes a little heartache
 		            B
There she goes a little pain
            Em			  Am
Make no mistake, she sheds her skin like a snake
              Em   B	       Em    (stop)
On the dirty road to fame, dirty road to fame my love now,
Fm			   A#m
Oh There she goes a little heartache
Fm		           C
There she goes a little pain
           Fm			A#m
Make no mistake she sheds her skin like a snake
 	              Fm	 C	Fm   (stop)	       C
You're going to walk the plank again, walk the plank again my love now

Em	Am x2


Em	     Am		Em			   Am
I was to implore                     that you forget all you saw
 			         D			 G
When you came through my door and from your bag
 		 C		     B7
pulled out more skag than I'd ever seen
Em		Am		Em
No! how could I let go?
 		Am		           D
Since I caught a glimpse of your white plimsoles
 	         G			  C
Twisting and turning to northern soul
 	    B7				
Just once glance, ah well you know,
         C7	      B7		Em
Everybody knows

 		            Am		Em
There she goes a little heartache 
 		        B
The she goes a little pain
           Em			Am
Make no mistake she sheds her skin like a snake
              Em   C	        Em  (stop)
On the dirty road to fame, dirty road to fame my love now
Fm		            A#m	       Fm
There she goes a little heartache 
 	            C
There she goes a little pain
            Fm			A#m
Make no mistake she sheds her skin like a snake
 		Fm          C	Fm		         C
You're going to walk the plank again, walk the plank again
F#m		          Gm	 G#m	      Am
There she goes a little, there she, there she, there she goes
-------------------------------------------------------------------

10: Baddies Boogie

e|---5---3---5----3----------------------------------------------------------|
B|-----5------5-5------------------------------------------------------------|
G|-5-------5-----------------------------------------------------------------|
D|---------------------------------------------------------------------------|
A|---------------------------------------------------------------------------|
E|---------------------------------------------------------------------------|

4x

then the second guitar:

e|-------16-14-------16-14----14----------------------------------------------------|
B|----16----------16-------16-------------------------------------------------------|
G|-16----------16-------------------------------------------------------------------|
D|----------------------------------------------------------------------------------|
A|----------------------------------------------------------------------------------|
E|----------------------------------------------------------------------------------|

   C   Am  G   F

e|-8-|-5-|-3-|-1-|
B|-8-|-5-|-3-|-1-|
G|-9-|-5-|-4-|-2-|
D|10-|-7-|-5-|-3-|
A|10-|-7-|-5-|-3-|
E|-8-|-5-|-3-|-1-|


C
Baddie’s bound by ancient codes
Am
of decency and secrecy
G
he understands about
F
stabbin’ backs and shaking hands
C
So if or when you’re behind bars or
Am
in front of them as you are
G
Look out for the man who’ll
F
bum your wife and then shake your hand

C                    Am
Oh you’ve been here before
             C                             Am
you fell in love and carried her over the threshold

Thinking
C
She’s far too good looking
E
to do the cooking
Am                         D
now that was twenty years ago
Dm
twenty years ago

And now she’s thinking
Am                                   D
It’s a lousy life for the washed up wife
                  Dm
of a permanently plastered pissed up bastard
Am                              D
A lousy life for the washed up wife
                  Dm
of a permanently plastered pissed up bastard
Am                              D
A lousy life for the washed up wife
                  Dm
of a permanently plastered pissed up bastard
Lousy life, a lousy life

Dm                      Em
Kid was singing will I ever be free
F                   G
does this town hold no more for me
Dm                  Em
Club Tropicana the drinks are free
F                 G
stick one in his face for me
------------------------------------------------------------------

11: Deft left hand

Intro-Chorus

Riff

e-3-1--1/33-1--1------------------|
b-----3------3--------------------|
g---------------------------------|
d---------------------------------|
a---------------------------------|
e---------------------------------|

Last time ends on the 3th fret on b

Chords

C  Bb  F

Verse


C7  F  Fm  A6  G7

Part 2

C  Am  G6    x4

F  G  F  G

C  Am  F  G

C  Am  G6

C  Am  F  G

C  Am  G6

F  Fm  F  G

C  Am  G6

F  Fm  A6  G7


Intro
Verse
Intro
Verse
Part 2
Chorus(Intro)
-----------------------------------------------------------------------

12: Lost art of murder

Chords used:
F    (x 8 7 5 6 5)
F/Am (x 7 7 5 5 5)
A#   (6 8 7 x x x)
C    (8 7 5 5 5 x)
A#2  (6 8 6 7 6 6)
C2   (8 10 8 9 8 8)
Dm   (x 5 7 7 6 5)
Am   (5 7 7 5 5 5)
Gm   (3 5 5 3 3 3)
C3   (x 3 5 5 5 3)
C#   (x 4 6 6 6 4)
F2   (1 3 3 2 1 1)
A    (5 7 7 6 5 5)
A#3  (6 8 8 7 6 6)
A#m  (6 8 8 6 6 6)

Intro:

e------------------  --------------  ------5---------  -------------|
B------------6--5--  --------6--5--  ----------6--5--  --------6----|
G------5-----------  ----(5)-------  ----5---5-------  ------5------|
D----7---(7)-------  --7-----------  --8-------------  ----7--------|
A--8---------------  --------------  ----------------  --8--------8-|
E------------------  --------------  ----------------  -------------|

e--5-------5----5--5---5----  --5--5--6----5--5--  --------------|
B--6-------5h6--6--5h6p5----  --5--6--6p5--8--6--  -----------6--|
G--5--x5---5----5--5---5----  --5--5--5----5--5--  ---------5----|
D--7-------7----7--7---7----  --8--8--8----8--8--  -------7------|
A--8-------8----8--8---8----  -------------------  --7--8--------|
E---------------------------  -------------------  --------------|

Verse 1:

F
 Could roll a four
F/Am
 Could roll a nine
A#                         C
 Find yourself washed up in paradise


F
 Just like before
F/Am
 She never used to mind
A#                 A#2 C2     F
 I lost my phone in       paradise

Refrain:

    Dm                    Am
And what a nice day for a murder
    Gm                             C3
You call yourself a killer but the only thing that you're
C#              Dm
killing is your time

                Am
There's nothing absurder
  Gm
A bird is just a burden
        C3                     C#            F2
To your heart your soul your body spirit and mind

                        A
Oh dont look at me like that
                 A#3
She won't take you back
             A#m                  F2
You said too much, you been too unkind
                A
Get up off your back
             A#3
Stop smoking that
          A#m
You could change your life
       A#m
Do you think you'll change their mind

Then repeat Intro, but with some variations I couldn't figure out. Sorry...

F
 Could roll a four
F/Am
 Could roll a nine
A#                         C
 Find yourself washed up in paradise

F
 No light before
F/Am
 No light behind
A#                        A#2 C2    F
 Someone else washed up in      paradise

    Dm                    Am
And what a nice day for a murder
    Gm                             C3
You call yourself a killer but the only thing that you're
C#              Dm
killing is your time

                Am
There's nothing absurder
  Gm
A bird is just a burden
        C3                      C#           F2
To your heart your soul your body spirit and mind

                        A
Oh dont look at me like that
                  A#3
She won't take you back
             A#m                  F2
You said too much, you been too unkind
                A
Get up off your back
            A#3
Stop smoking that
          A#m
You could change your life
           A#m
Do you think you'll change their mind

Outro:

e---------------------------5--|
B------------------6---6----5--|
G--------------5-----5---5--5--|
D----------5h7---7----------7--|
A--5--7--8------------------8--|
E------------------------------|

Tap to rate this tab
 
# A B C D E F G H I J K L M N O P Q R S T U V W X Y Z