Song name
# A B C D E F G H I J K L M N O P Q R S T U V W X Y Z

Babyshambles - Delivery tab

Babyshambles - Delivery

tabbed by: Flex24

Lead Guitar
-----------

Intro:
e|-10-------10-------10-------10--------|
B|----11-------11-------11-------11-----|
G|-------12-------12-------12-------12--|
A|--------------------------------------|
E|--------------------------------------|  x4

Verse:
  G   F G   F G   F G Bb
|-3---1-3---1-3---1-3-6---|
|-3---1-3---1-3---1-3-6---|
|-4---2-4---2-4---2-4-7---|
|-5---3-5---3-5---3-5-8---|
|-5---3-5---3-5---3-5-8---|
|-3---1-3---1-3---1-3-6---| x2

  C   B  Bb
|-8---7---6-|
|-8---7---6-|
|-7---6---5-|
|-9---8---7-|
|-9---8---7-|
|-8---7---6-|

e|---10-------10-------10-------10--------10-------|
B|------11-------11-------11-------11--------11----|
G|12-------12-------12-------12-------12-------12--|
A|-------------------------------------------------|
E|-------------------------------------------------| x2

  C   B  Bb
|-8---7---6-|
|-8---7---6-|
|-7---6---5-|
|-9---8---7-|
|-9---8---7-|
|-8---7---6-|

Chorus:

e|---10-------10-------10-------10--------10-------|
B|------11-------11-------11-------11--------11----|
G|12-------12-------12-------12-------12-------12--|
A|-------------------------------------------------|
E|-------------------------------------------------|

e|---9-------9----------------|
B|-----10-------10--------10--|
G|10------10-------10--10-----|
A|----------------------------|
E|----------------------------|

e|---6---6----5---5---|
B|-----6--------7-----|
G|-7--------7---------|
A|--------------------|
E|--------------------|

Verse

Chorus

Rhythm Guitar
-------------
Intro:
  G   F G   F G   F G Bb
|-3---1-3---1-3---1-3-6---|
|-3---1-3---1-3---1-3-6---|
|-4---2-4---2-4---2-4-7---|
|-5---3-5---3-5---3-5-8---|
|-5---3-5---3-5---3-5-8---|
|-3---1-3---1-3---1-3-6---| x2

Verse:
  G   F G   F G   F G Bb
|-3---1-3---1-3---1-3-6---|
|-3---1-3---1-3---1-3-6---|
|-4---2-4---2-4---2-4-7---|
|-5---3-5---3-5---3-5-8---|
|-5---3-5---3-5---3-5-8---|
|-3---1-3---1-3---1-3-6---| x2

  C   B  Bb
|-8---7---6-|
|-8---7---6-|
|-7---6---5-|
|-9---8---7-|
|-9---8---7-|
|-8---7---6-|

  G   F G   F G   F G Bb
|-3---1-3---1-3---1-3-6---|
|-3---1-3---1-3---1-3-6---|
|-4---2-4---2-4---2-4-7---|
|-5---3-5---3-5---3-5-8---|
|-5---3-5---3-5---3-5-8---|
|-3---1-3---1-3---1-3-6---| x2

  C   B  Bb
|-8---7---6-|
|-8---7---6-|
|-7---6---5-|
|-9---8---7-|
|-9---8---7-|
|-8---7---6-|

Chorus:

E|--3---3---1---1-5--|
B|--3---4---1---3-7--|
G|--3---5---2---3-7--|
D|--5---5---3---3-7--|
A|--5---3---3---1-5--|
E|--3---3---1---1-5--| x2

Verse

Chorus

Solo: same as vers

Interlude: pause

Chorus x2
Tap to rate this tab
 
# A B C D E F G H I J K L M N O P Q R S T U V W X Y Z