Song name
# A B C D E F G H I J K L M N O P Q R S T U V W X Y Z

Babyshambles - Fuck Forever tab

Intro Part 1

e|---------------------------x-------------------x-x-x-x-x-x-x-x------------|
B|---3-3-3-3-3-3-3-3-3-3-3-3-x-2-2-2-2-2-2-2-2---x-x-x-x-x-x-x-x------------|
G|---3-3-3-3-3-3-3-3-3-3-3-3-x-2-2-2-2-2-2-2-2---x-x-x-x-x-x-x-x------------|
D|---3-3-3-3-3-3-3-3-3-3-3-3-x-2-2-2-2-2-2-2-2---x-x-x-x-x-x-x-x------------|
A|---1-1-1-1-1-1-1-1-1-1-1-1-x-0-0-0-0-0-0-0-0---x-x-x-x-x-x-x-x------------|
E|---------------------------x-------------------x-x-x-x-x-x-x-x------------|

Intro Part 2

e|-2-2-x-x-10-10-x-x-5-5-x-x-9--9--x-x--------------------------------------|
B|-3-3-x-x-12-12-x-x-7-7-x-x-10-10-x-x--------------------------------------|
G|-4-4-x-x-12-12-x-x-7-7-x-x-11-11-x-x---play 3 times-----------------------|
D|-4-4-x-x-12-12-x-x-7-7-x-x-11-11-x-x--------------------------------------|
A|--------------------------------------------------------------------------|
E|--------------------------------------------------------------------------|

Intro Part 3

e|----2-2------0-0----2-2-2--2-2--------------------------------------------|
B|----3--3-3---1--1-1-3--3-3-3-3--------------------------------------------|
G|----2---2----0---0--4------4-4---picking is not accurate------------------|
D|----0--------2------4------4-4--------------------------------------------|
A|-------------3------------------ you also can play this with bar-chords---|
E|--------------------------------------------------------------------------|

Verse 1

e|------------------------------------------7-7-7-0-------x-7-5-3-2---------|
B|--8-8-8-x-8-7-5-7/8-8-8-8-x-8-7-5-7-------8-8-8-0-------x--0-0-0-0--------|
G|--x-x-x-x-x-x-x-x-x-x-x-x-x-x-x-x-x-------9-9-9-0-------x-----------------|
D|--7-7-7-x-7-7-7-7-x-7-7-7-x-7-7-7-7-------9-9-9-0-------x-----------------|
A|------------------------------------5/7b~----------5/7b~------------------|
E|--------------------------------------------------------------------------|

e|--------------9--------9~------------------------9---9--------------------|
B|----8-8-8-x-8---8---8--8~------------------------8---8--------------------|
G|----x-x-x-x-x-----9----9~------------------------9-9-9-9------------------|
D|----7-7-7-x-7-------------------------------------------------------------|
A|--------------------------------------------------------------------------|
E|--------------------------------------------------------------------------|

e|--9---9---9-9-9-9-9~------------------------------------------------------|
B|--8---8---8-8-8-8-8~------------------------------------------------------|
G|--9---9---9-9-9-9-9~------------------------------------------------------|
D|--0---0---0-0-0-0-0~------------------------------------------------------|
A|--------------------------------------------------------------------------|
E|--------------------------------------------------------------------------|

Chorus

e|-22---------9-9------------------------------22-XX------XX-----------------|
B|-33/1212\77/1010---< play as often-----------33-XX-1212-XX-77--------------|
G|-44/1212\77/1111-----as you need it------- --44-XX-1212-XX-77--------------|
D|-44/1212\77/1111-----------------------------44-XX-1212-XX-77--------------|
A|-22/1010\55/9-9-------------play once--->----22-XX-1010-XX-55--------------|
E|------------------------------------------------XX------XX-----------------|


e|----2----3-3--------------------2--2---------------------------------------|
B|------3--3-3--------------------2---2--------------------------------------|
G|--4------0-0---2-4-4p2p0--------2---------this is the "fuck forever" part--|
D|--4-----0---------------4p2p0----------------------------------------------|
A|---------------------------------------------------------------------------|
E|---------------------------------------------------------------------------|

Play the first line of Chorus again

Now play the first line of the verse and then the Intro Part 3 twice

Then play this

e|---------------------------------------------------------------------------|
B|---13-x-13?13-x-13-x-13-x-13-x-13-x-13-------------------------------------|
G|---12-x-12?12-x-12?x-12?x-12?x-12-x-12-------------------------------------|
D|---11-x-11?11-x-11-x-11-x-11-x-11-x-11-------------------------------------|
A|---12-x-12?12-x-12-x-12-x-12-x-12-x-12-------------------------------------|
E|---------------------------------------------------------------------------|

Now the chorus again,then the solo

Solo

e|---------------------------------------------5~-------------10--9--7-------|
B|---3-3-3-3-3-2-0-2-/--7-7-7-7-10-8-7-\-3--3-----3-3-2-0-2/7---7--7--7------|
G|---------------------------------------------------------------------------|
D|---------------------------------------------------------------------------|
A|---------------------------------------------------------------------------|
E|---------------------------------------------------------------------------|

e|---------------------------------------------------------------------------|
B|---7--10-8-7-3~+-----------------------------------------------------------|
G|---------------------------------------------------------------------------|
D|---------------------------------------------------------------------------|
A|---------------------------------------------------------------------------|
E|---------------------------------------------------------------------------|
    
 Then play following

e|---------------------------------------------------------------------------|
B|---13-x-13-x-13-x-13-x-13-x-13-x-13-x-13--13-13-14-14-15-15-16-16----------|
G|---12-x-12-x-12-x-12-x-12-x-12-x-12-x-12--12-12-12-12-12-12-12-12----------|
D|---11-x-11-x-11-x-11-x-11-x-11-x-11-x-11-----------------------------------|
A|---12-x-12-x-12-x-12-x-12-x-12-x-12-x-12-----------------------------------|
E|---------------------------------------------------------------------------|

Then play the chorus again 

Outro

They´ll Never Play This On The Radio. . . .      Ah Ah Ah Ah Ahhh!
e|--23/-------/9---------------------------||--9---9---9---9----9--9--9-----|
B|--33/1212/77/10--------------------------||--10--10--10--10--10-10-10-----|
G|--44/1212/77/11--------------------------||--11--11--11--10--11-11-11-----|
D|--44/1212/77/11--------------------------||--11--11--11--10--11-11-11-----|
A|--22/1010/55/9---------------------------||--9---9---9---9---9--9--9------|
E|-----------------------------------------||-------------------------------|

Play the Intro Part 2 to finish the song


| /  slide up
| \  slide down
| h  hammer-on
| p  pull-off
| ~  vibrato
| ~+ use Tremolo to increase the power of the vibrato 
| x  Mute note
Tap to rate this tab
# A B C D E F G H I J K L M N O P Q R S T U V W X Y Z