Song name
# A B C D E F G H I J K L M N O P Q R S T U V W X Y Z

Babyshambles - Babyshambles tab

Babyshambles "Babyshambles (single version)"

Tuning: Standard

Intro

e|--------------------------------||
B|-7---7---7---7---7---7---7---7--||
G|-7---7---7---7---7---7---7---7--|| x 4
D|-9---9---9---7---9---9---9---7--||    
A|-9---9---9---7---9---9---9---7--||
E|-7---7---7---7---7---7---7---7--||
*
e|-----------------0---------------0---------------2---------------2--|
B|-7---7---7-7-7---0---------------1---------------3---------------3--|
G|-7---7---7-7-7---0---------------0---------------2---------------4--|
D|-9---9---9-9-9---2---------------2---------------0---------------4--|  
A|-9---9---9-9-9---2---------------3-------------------------------2--|
E|-7---7---7-7-7---0--------------------------------------------------|
*
e|-----7---7---7----------------------------------|
B|-----8---7---8---5---------------8-7-8-7-8---7--|
G|-----9---9---9---5---------------7-7-7-7-7---7--|
D|-9---9---9---9---5---------------7-7-7-7-7---7--|
A|-7---------------3---------------5-5-5-5-5---5--|
E|-0----------------------------------------------|


Verse

e|---------------------------------||
B|-7---7-7-7-7-7-7-9---9-5---5-5-5-||
G|-7---7-7-7-7-7-7-9---9-5---5-5-5-|| x 4
D|-9---9-7-9-9-9-7-9---9-5---5-5-5-||
A|-9---9-7-9-9-9-7-7---7-3---3-3-3-||
E|-7---7-7-7-7-7-7-----------------||


1st Chorus

e|-0---------------0---------------2---------------2--|
B|-0---------------1---------------3---------------3--|
G|-0---------------0---------------2---------------4--|
D|-2---------------2---------------0---------------4--|
A|-2---------------3-------------------------------2--|
E|-0--------------------------------------------------|
*
e|-----7---7---7----------------------------------|
B|-----8---7---8---5---------------8-7-8-7-8---7--|
G|-----9---9---9---5---------------7-7-7-7-7---7--|
D|-9---9---9---9---5---------------7-7-7-7-7---7--|
A|-7---------------3---------------5-5-5-5-5---5--|
E|-0----------------------------------------------|


Verse x 4


2nd Chorus w/ Bridge

e|-0---------------0---------------2---------------2--|
B|-0---------------1---------------3---------------3--|
G|-0---------------0---------------2---------------4--|
D|-2---------------2---------------0---------------4--|
A|-2---------------3-------------------------------2--|
E|-0--------------------------------------------------|
*
e|-0---------------0---------------2--------------|
B|-0---------------1---------------3--------------|
G|-0---------------0---------------2--------------|
D|-2---------------2---------------0--------------|
A|-2---------------3------------------------------|
E|-0----------------------------------------------|
*
e|-0---0-x-x-0-0---0---0-0---0-0---0---0---0-0-x-0---0---0-0--|
B|-2---2-x-x-2-2---2---2-2---2-2---3---3---3-3-x-5---5---5-5--|
G|-3---3-x-x-3-3---3---3-3---3-3---4---4---4-4-x-6---6---6-6--|
D|-4---4-x-x-4-4---4---4-4---4-4---5---5---5-5-x-7---7---7-7--|
A|-4---4-x-x-4-4---4---4-4---4-4---5---5---5-5-x-7---7---7-7--|
E|-2---2-x-x-2-2---2---2-2---2-2---3---3---3-3-x-5---5---5-5--|
*
e|--------------------------------|
B|-7---7---7-7-7-7-7---7-7---7-7--|
G|-7---7---7-7-7-7-7---7-7---7-7--|
D|-7---7---7-7-7-7-7---7-7---7-7--|
A|-5---5---5-5-5-5-5---5-5---5-5--|
E|--------------------------------|
*
e|--------------------------------|
B|-2---2---2-2-2-2-2---2-2---2-2--|
G|-3---3---3-3-3-3-3---3-3---3-3--|
D|-4---4---4-4-4-4-4---4-4---4-4--|
A|-4---4---4-4-4-4-4---4-4---4-4--|
E|-2---2---2-2-2-2-2---2-2---2-2--|

Verse x 4

Solo (breakdown and then improvise over the verse for several measures, then end).


That's it. Please leave any comments or corrections. Cheers!
-Bennyshambles78-
Tap to rate this tab
# A B C D E F G H I J K L M N O P Q R S T U V W X Y Z