Song name
# A B C D E F G H I J K L M N O P Q R S T U V W X Y Z

Babyshambles - Picture Me In A Hospital tab

-------------------------------------------------------------------------------
                             Picture me in a hospital - Babyshambles
-------------------------------------------------------------------------------
Tabbed by: lfgtimmer

Tuning:standard

Intro: The chords from te verse are strummed and the following riff is played:

   G         Em       D6      Bm     | fill towards violin riff
e|-10-12-10--7-7h8p7---7-7-----------|----------10-|
B|-12-12-12--8-8---8---7---7---------|-10-12-13-12-|
G|---------------------7-----7---9-7-|-11-12-14----|
D|-----------------------------9-----|-------------|
A|-----------------------------------|-------------|
E|-----------------------------------|-------------|


Violin riff:
   ^        ^
e|-10-12-10----------------------------------|
B|----------12-13-12-------------------------|
G|-------------------11r---------------------|
D|-------------------------------------------| ^ pick multiple times
A|-------------------------------------------|
E|-------------------------------------------|
e|-------------------------------------------|



Verse:

G                              Em                                     Bm
Picture me in hospital and the blood runs red and the bags are full of ah
               D
youíre terrible it makes me powerfull


Chorus:
C                 D       G  D/F# Em       Bm                 
Each man has itís secret, to hide away and never say and never know and so it goes
Tap to rate this tab
# A B C D E F G H I J K L M N O P Q R S T U V W X Y Z