Song name
# A B C D E F G H I J K L M N O P Q R S T U V W X Y Z

Babyshambles - Dr No tab

there's one guitar playing around with this

e-----------------------------------------------------|
B--------------11------9--10--13--------------11--10--|
G--10--11--12------12-------------10--11--12----------|
D-----------------------------------------------------| x2
A-----------------------------------------------------|
E-----------------------------------------------------|


e---------------------10--10-----------------------10--------------------------|
B-----------------11---------------------------11------13--14--13--14--14--11--|
G--9--10--11--12----------------9--10--11--12----------------------------------|
D------------------------------------------------------------------------------|
A------------------------------------------------------------------------------|
E------------------------------------------------------------------------------|


and the other one goes
Cm x4 - D# x2 - F x2
Tap to rate this tab
# A B C D E F G H I J K L M N O P Q R S T U V W X Y Z