Song name
# A B C D E F G H I J K L M N O P Q R S T U V W X Y Z

Babyshambles - Fireman tab

Song: Fireman
Band: Babyshambles
Album: Sequel to the Prequel

Intro:

gtr. 1
e|-------------------------------------------------|
B|12-12-12-12-12-12-12-12-12-12-12-12--------------|  
G|11-11-11-11-9--9--9--9--11-11--9-11--------------|
D|12-12-12-12-12-12-12-12-12-12-12-12--------------|
A|-------------------------------------------------|
E|-------------------------------------------------|

gtr. 2
e|-------------------------------------------------|
B|-------------------------------------------------|
G|-------------------------------------------------|
D|-------------------------------------------------|
A|-------------------------------------------------|
E|-------------------------------------------------|

gtr. 1
e|-------------------------------------------------|
B|12-12-12-12-12-12-12-12-12-12-12-12--------------|
G|11-11-11-11-9--9--9--9--11-11--9-11--------------|
D|12-12-12-12-12-12-12-12-12-12-12-12--------------|
A|-------------------------------------------------|
E|-------------------------------------------------|

gtr. 2
e|---------------------------------7+--------------|
B|------------------------7+-7+----7+--------------|
G|------------------------7+-7+----7+--------------|
D|7+-7+-7+-7+-7+-7+-7+-7+-7+-7+-7+-----------------|
A|7+-7+-7+-7+-7+-7+-7+-7+-7+-7+-7+-----------------|
E|7+-7+-7+-7+-7+-7+-7+-7+-------7+-----------------|

gtr. 1
e|-------------------------------------------------|
B|12-12-12-12-12-12-12-12-12-12-12-12----12-12-12--|
G|11-11-11-11-9--9--9--9--11-11--9-11----9--11-9---|
D|12-12-12-12-12-12-12-12-12-12-12-12----12-12-12--|
A|-------------------------------------------------|
E|-------------------------------------------------|

gtr. 2
e|-------------------------------------------------|
B|-------------------------------------------------|
G|11-11-11-11-9--9--9--9--11-11--9-11----9--11-9---|
D|-------------------------------------------------|
A|-------------------------------------------------|
E|-------------------------------------------------|

gtr. 1
e|-------------------------------------------------|
B|12-12-12-12-12-12-12-12-12-12-12-12----12-12-12--|
G|11-11-11-11-9--9--9--9--11-11--9-11----9--11-9---|
D|12-12-12-12-12-12-12-12-12-12-12-12----12-12-12--|
A|-------------------------------------------------|
E|-------------------------------------------------|

gtr. 2:
e|-------------------------------------------------|
B|-------------------------------------------------|
G|11-11-11-11-9--9--9--9--11-11--9-11----9--11-9---|
D|-------------------------------------------------|
A|-------------------------------------------------|
E|-------------------------------------------------|


Verse: 


gtr. 1 and gtr. 2 play the same for most of the verse
       
gtr. 1 and gtr. 2:

D - A - Bm - Bm  three times

Then:

G   -   A        

With gtr. 2 playing bends over the G and A chords

  
  G                    A
e|-------------------------------------------------|
B|3-(3)----------------5-(5)-----------------------|
G|5b(7)----------------7b(9)-----------------------|
D|-------------------------------------------------|
A|-------------------------------------------------|
E|-------------------------------------------------|

Interlude: 

gtr. 1
e|-------------------------------------------------|
B|12-12-12-12-12-12-12-12-12-12-12-12--------------|
G|11-11-11-11-9--9--9--9--11-11--9-11--------------|  x2
D|12-12-12-12-12-12-12-12-12-12-12-12--------------|
A|-------------------------------------------------|
E|-------------------------------------------------|


Verse 2: 

same as verse 1

Chorus: both guitars

e|------------------4-----5-----7------------|
B|9-9-9-9-9-9-9-9---4-----5-----7------------|
G|9-9-9-9-9-9-9-9---5-----6-----8------------|  x4
D|9-9-9-9-9-9-9-9---6-----7-----9------------| 
A|7-7-7-7-7-7-7-7---6-----5-----9------------|
E|------------------4-----5-----7------------|

Interlude

gtr. 1
e|-------------------------------------------------|
B|12-12-12-12-12-12-12-12-12-12-12-12--------------|
G|11-11-11-11-9--9--9--9--11-11--9-11--------------|  
D|12-12-12-12-12-12-12-12-12-12-12-12--------------|
A|-------------------------------------------------|
E|-------------------------------------------------|

gtr. 2
e|-------------------------------------------------|
B|-------------------------------------------------|
G|-------------------------------------------------|
D|-------------------------------------------------|
A|-------------------------------------------------|
E|-------------------------------------------------|

gtr. 1
e|-------------------------------------------------|
B|12-12-12-12-12-12-12-12-12-12-12-12--------------|
G|11-11-11-11-9--9--9--9--11-11--9-11--------------|  
D|12-12-12-12-12-12-12-12-12-12-12-12--------------|
A|-------------------------------------------------|
E|-------------------------------------------------|

gtr. 2
e|-------------------------------------------------|
B|-------------------------------------------------|
G|---------------------------------5+--------------|
D|5+-5+-5+-5+-5+-5+-5+-5+-5+-5+-5+-----------------|
A|-------------------------------------------------|
E|-------------------------------------------------|

Verse 3:

Same as verse 1 and 2 except for gtr. 2 playing this over the G and A chords at the end

  G                    A
e|-------------------------------------------------|
B|8--(8)----------------5-(5)----------------------|
G|10b(12)---------------7b(9)----------------------|
D|-------------------------------------------------|
A|-------------------------------------------------|
E|-------------------------------------------------|


Final Chorus:



repeated until the end of the song
same as the other choruses with the exception of gtr. 2 coming in and playing lots of bends
    
e|---------|
B|12-(12)--|
G|14b(16)--|  repeat lots of times, also played at the end when gtr. 1
D|---------|  strums the E chord several times
A|---------|
E|---------|
Tap to rate this tab
# A B C D E F G H I J K L M N O P Q R S T U V W X Y Z