Song name
# A B C D E F G H I J K L M N O P Q R S T U V W X Y Z

Babyshambles - Black Boy Lane tab

                 Black Boy Lane - Babyshambles
                  Tabbed by Michael Johnston

Basically just taken the correct parts from both other tabs as there is some correct tab 
although its masked with incorrect tab.

Intro:

e|-x-x-x-x-5-5-5-5-5-5-x--|
B|-x-x-x-x-5-5-5-5-5-5-7b-|
G|-x-x-x-x-5-5-5-5-5-5-7b-|
D|-x-x-x-x-7-7-7-x-7-x-x--|
A|-x-x-x-x-7-7-7-x-7-x-x--|
E|-x-x-x-x-x-x-x-x-x-x-x--|

Verse:

e|-5-5-5-x-5-5-x----|     |--10-10-10-10-10--x-------|
B|-5-5-5-x-5-5-x----|     |--10-10-10-10-10--x-------|
G|-5-5-5-x-5-5-7b~--| x6  |--10-10-10-10-10-12b~-----| x2
D|-7-7-7-x-7-7-7b~--|     |--12-12-12--x-12-12b~-----|
A|-7-7-7-x-x-7-x----|     |--12-12-12--x-12--x-------|
E|-x-x-x-x-x-x-x----|     |---x--x--x--x--x--x-------|

Chorus:

F                     E
 Do you think you can help
         D          C
Can you make me a call
    F          E                D          C
I'm so new to town I can't get nothing at all
E
Today, are you dancing today?
Tap to rate this tab
# A B C D E F G H I J K L M N O P Q R S T U V W X Y Z