Guitaretab - guitar tabs
Song name
# A B C D E F G H I J K L M N O P Q R S T U V W X Y Z

Babyshambles - Black Boy Lane tab

-------------------------------------------------------------------------------
			     Black Boy Lane - Babyshambles
-------------------------------------------------------------------------------
Tabbed by: Stuart

Tuning: Standard

Intro:

e|-x-x-x-x-5-5-5-5-5-5-x----9~------9---9~------x\--------------------------|
B|-x-x-x-x-5-5-5-5-5-5-7b-----8~-----8-----8----x\--------------------------|
G|-x-x-x-x-5-5-5-5-5-5-7b-------7~----7-----7---x\--------------------------|
D|-x-x-x-x-7-7-7-x-7-x-x------------------------x\--------------------------|
A|-x-x-x-x-7-7-7-x-7-x-x------------------------x\--------------------------|
E|-x-x-x-x-x-x-x-x-x-x-x------------------------x\--------------------------|

Verse:
[ Tab from: http://www.guitaretab.com/b/babyshambles/55690.html ]
e|-5-5-5-x-5-5-x----|     |--10-10-10-10-10--x-------|
B|-5-5-5-x-5-5-7b~--|     |--10-10-10-10-10-12b~-----|
G|-5-5-5-x-5-5-7b~--| x6  |--10-10-10-10-10-12b~-----| x2
D|-7-7-7---x-7-x----|     |--12-12-12--x-12--x-------|
A|-7-7-7---x-7-x----|     |--12-12-12--x-12--x-------|
E|-x-x-x---x-x-x----|     |---x--x--x--x--x--x-------|
     

Chorus:

e|-x---x-x-------------------------1-1-1-------2-2-2-0-0-0------------------------|
B|-10-10-10-9-9-9-9-\-7-7-7-5-5-5--1-1-1-------3-3-3-1-1-1------------------------|
G|-10-10-10-9-9-9-9-\-7-7-7-5-5-5--2-2-2-1-1-1-2-2-2-0-0-0--1-1-1-1-1-1-1-1-1-1-1-|
D|-10-10-10-9-9-9-9-\-7-7-7-5-5-5--3-3-3-2-2-2-0-0-0-2-2-2--2-2-2-2-2-2-2-2-2-2-2-|
A|-x-------------------------------3-3-3-2-2-2-------3-3-3--2-2-2-2-2-2-2-2-2-2-2-|
E|-x-------------------------------1-1-1-0-0-0--------------0-0-0-0-0-0-0-0-0-0-0-|


Thats pretty much it.

| /  slide up
| \  slide down
| h  hammer-on
| p  pull-off
| ~  vibrato
| +  harmonic
| x  Mute note
===============================================================================
Related for Black Boy Lane tab