Song name
# A B C D E F G H I J K L M N O P Q R S T U V W X Y Z

Babyshambles - Man Who Came To Stay tab

The man who came to stay by AL7
Babyshambles

INTRO

E--9--7--     ----------------------------------------|
B-10--8--     ----------------------------------------|
G--9--7--  X2 ---------------------------  X2  -------|  X3
D--0--0--     --9-11----------------------------------|
A--------     -------12-14-11-12-9-11-7-9-------------|
E--------     ----------------------------------------|

E--9--7--     -----------------------------------------------------|
B-10--8--     -----------------------------------------------------|
G--9--7--  X2 --------------------------------------------   --->1-|
D--0--0--     --9-11----------------------9-11---------------------|
A--------     -------12-14-11-12-9-11-7-9------12-14-11-12---------|
E--------     -----------------------------------------------------|

Chords
A-X02220
E-022100
F#m-244222
D-XX0232
Dm-XX0231
Bm-224432
G-320002

Verse1
A        E             F#m
There's a man who came to stay
D                                Dm
The boy he replaced, disappeared without a trace...
A                E             F#m
Stole all my songs and my style away
D
While no-one would say
Dm
what they wanted to say
So he was king for a day...

Chorus
D        F#m          Bm    G
If you sail into the sun
D    F#m            Bm      G
Beware the eyes of green
D                F#m             Bm                 G
And if the whole room tells you 'you are the one'
D        F#m            Bm                G
Well I defy you not to believe them, my son...

E--9--7--     ---------------------------------------|
B-10--8--     ---------------------------------------|
G--9--7--  X2 ---------------------------  X2  --->2-|
D--0--0--     --9-11---------------------------------|
A--------     -------12-14-11-12-9-11-7-9------------|
E--------     ---------------------------------------|

E--9--7--     -----------------------------------------------------|
B-10--8--     -----------------------------------------------------|
G--9--7--  X2 --------------------------------------------   --->1-|
D--0--0--     --9-11----------------------9-11---------------------|
A--------     -------12-14-11-12-9-11-7-9------12-14-11-12---------|
E--------     -----------------------------------------------------|
Verse2
A        E             F#m
There's a man who came to stay...
D                          Dm
Trip off the test, now the kitchen's a mess
and the garden's undressed
A          E        F#m
Every single gig I play
D
Something's not right inside
Dm
Paranoia and pride and nowhere to hide

Chorus
D        F#m          Bm    G
If you sail into the sun, lala la lala lala
D        F#m          Bm    G
Beware the eyes of green
D                F#m             Bm                  G
And if the whole world tells you 'you are the one'
D        F#m            Bm                G
I think you're hearing those voices again my son

E--9-9--9------------------------------|
B-10-10-10-----------------------------|
G--9-9--9------------------------------|
D------------9-11----------------------|
A-----------------12-14-11-12-9-11-7-9-|
E--------------------------------------|

E--9-9--9----------------------------|
B-10-10-10---------------------------|
G--9-9--9----------------------------|
D------------11--11-14-11--11--11-14-|
A--------------14--------14--14------|
E------------------------------------|

E--9-9--9-------------------------------|
B-10-10-10------------------------------|
G--9-9--9-------------------------------|
D------------11-11-12-12-14-14-16-14-12-|
A---------------------------------------|
E---------------------------------------|

E--9-9--9--9--9--9--9--9--9--9--9--|
B-10-10-10-10-10-10-10-10-10-10-10-|
G--9-9--9--9--9--9--9--9--9--9--9--|
D----------------------------------|
A----------------------------------|
E----------------------------------|

Chorus
D        F#m          Bm    G
If you sail into the sun
D        F#m          Bm        G
Please beware the eyes of green
D                F#m             Bm       G
And if it's all too much for you my son
D        F#m            Bm           G
I'm still here waiting though no no no no no
Tap to rate this tab
 
# A B C D E F G H I J K L M N O P Q R S T U V W X Y Z