Song name
# A B C D E F G H I J K L M N O P Q R S T U V W X Y Z

Babyshambles - Pipe Down tab

Babyshamlbes - Pipedown


Intro
-----

E [-0---0---7---7---0---0---0---0---]
B [-5-5-5-5-5-5-5-5-2---2-2-3-3-3-3-]
G [---------------------------------]
D [---------------------------------] (x3)
A [---------------------------------]
E [---------------------------------]

E [-0---0---7---7---0---]
B [-5-5-5-5-5-5-5-5-2---]
G [---------------------]
D [---------------------]
A [---------------------]
E [---------------------]



Chorus
------

E [---------------------------------]
B [-------------------------7-7-7-7-]
G [---------5---5-5---------7-7-7-7-]
D [-2---2-2-5---5-5-7---7-7-7-7-7-7-] (x3)
A [-2---2-2-3---3-3-7---7-7-5-5-5-5-]
E [-0---0-0---------5---5-5---------]

E [---------------------]
B [---------------------]
G [---------5---5-5-----]
D [-2---2-2-5---5-5-7---]
A [-2---2-2-3---3-3-7---]
E [-0---0-0---------5---]



Verse 1
-------

E [-7---7-8-7---7-8-7-8---7-8-7---7-8-7-----------------------------------0---0---0-0-0-0-]
B [-5---5-5-5---5-5-5-5---5-5-5---5-5-5---5-5-5---5-5-5---3---3---3-3-3-3-3---3---3-3-3-3-]
G [---------------------------------------4-5-4---4-5-4---2---2---2-2-2-2-3---3---3-3-3-3-]
D [-------------------------------------------------------0---0---0-0-0-0-----------------]
A [---------------------------------------------------------------------------------------]
E [---------------------------------------------------------------------------------------]

E [-7---7-8-7---7-8-7-8---7-8-7---7-8-7---------------------------------------------------]
B [-5---5-5-5---5-5-5-5---5-5-5---5-5-5-------------------3-3-3-3-3-3-3-3-3-3-3-3-3-3-3-3-]
G [---------------------------------------2---2---2---2---2-2-2-2-2-2-2-2-3-3-3-3-3-3-3-3-]
D [---------------------------------------2---2---2---2---0-0-0-0-0-0-0-0-0-0-0-0-0-0-0-0-]
A [---------------------------------------0---0---0---0-----------------------------------]
E [---------------------------------------------------------------------------------------]


(Repeat Chorus)



Verse 2
-------

E [-7---7-8-7---7-8-7-8---7-8-7---7-8-7-----------------------------------]
B [-5---5-5-5---5-5-5-5---5-5-5---5-5-5-----------------------------------]
G [---------------------------------------2-2---2---2-2-2-2-2---2---2-2-2-]
D [---------------------------------------2-2---2---2-2-2-2-2---2---2-2-2-]
A [---------------------------------------0-0---0---0-0-0-0-0---0---0-0-0-]
E [-------------------------------------------3---------------3-----------]

E [---------------------------------]
B [---------------------------------]
G [---------------------------------]
D [-7-7---7---7-7-7-8-8-8-8-9-9-9-9-]
A [-5-5---5---5-5-5-6-6-6-6-6-6-6-6-]
E [---------------------------------]


(Repeat Chorus)



E [-0---0---7---7---0---0---0---0---]
B [-5-5-5-5-5-5-5-5-2-2-2-2-3-3-3-3-]
G [---------------------------------]
D [---------------------------------] (x7)
A [---------------------------------]
E [---------------------------------]

E [-0---0---7---7---0---]
B [-5-5-5-5-5-5-5-5-2---]
G [---------------------]
D [---------------------]
A [---------------------]
E [---------------------]


(play below riff over repeats 5,6 & 7)

E [-----------------------------]
B [-5---7-5---7-5---5-7-8-7-5-7-]
G [-----------------------------]
D [-----------------------------]
A [-----------------------------]
E [-----------------------------]



Outro
-----

E [---------------------------------]
B [-------------------------7-7-7-7-]
G [---------5---5-5---------7-7-7-7-]
D [-2---2-2-5---5-5-7---7-7-7-7-7-7-] (x7)
A [-2---2-2-3---3-3-7---7-7-5-5-5-5-]
E [-0---0-0---------5---5-5---------]

E [-------------------------7-8-7-]
B [-------------------------------]
G [---------5---5-5-/-14----------]
D [-2---2-2-5---5-5-/-14----------]
A [-2---2-2-3---3-3-/-12----------]
E [-0---0-0-----------------------]

Tap to rate this tab
 
# A B C D E F G H I J K L M N O P Q R S T U V W X Y Z