Song name
# A B C D E F G H I J K L M N O P Q R S T U V W X Y Z

Babyshambles - Their Way tab

=======================================
Littl'ans ft/ Peter Doherty - Their Way
=======================================

I decided that it was about time that this song had a tab under the right artist rather
Babyshambles. Even though Pete features on the recording, the song still belongs to
So here's my version of it, slightly different to the other version by using capo on 2nd 
but makes it a bit easier to play.

I had also tabbed the lead guitar bits as well which are not relative to capo like the
are.


CAPO 2nd FRET.
All chords relative to capo.

Intro (also Fill 1)
e |--9997------------------|
B |------10-7-10-7-5-------|
G |------------------6~~~--|
D |------------------------|
A |------------------------|
E |------------------------|

G, Em, C, D x2

Lead over C to D strumming
e |----------------99-99-12-10-9--|
B |--12-12-12-1212----------------|
G |-------------------------------|
D |-------------------------------|
A |-------------------------------|
E |-------------------------------|

G
 Their way
Em
 Forces your hand
C
 There was no way to tell you
D
 I just hoped you'd understand
G
 I was waiting for you
Em
 Alone with that boy
C
 He needed a sympathy
D
 He just didn't want to have to say why

D             Bm              F#
 This way I'll always be (for you)
       A                       D
And to see you now and help me on
              Bm               F#
You know they like to knock me down
      A                        G
But I don't stay down for very long


G              Em
 I couldn't win but I could lose
C                               D
 And so the time had come and I knew I'd have to choose
G               Em
 But that kiss, I take to the end
C                             D
 Until the next time I get to see you again

D              Bm        F#
 This way I'll always be for you
       A                        D
And to know you now will see me through
           Bm              F#
(Away) you know I knew you there
       A                        D
And to see you know and help me on
              Bm               F#
You know they like to knock me down
      A                        D
But I don't stay down for very long
            Bm                 F#
They try to sing their wayward song
    A               G      Em     C     D    Fill 1
But oh what a way I found


Solo
     G                 Em            C            D
e |------5-------5-----------------------/8-8-7-5-4--2--------|
B |--5-7---7-5-7---7-5---------7-------------------5--3~~-----|
G |--------------------5~~~5-7---7-5--------------------------|
D |----------------------------------7------------------------|
A |-----------------------------------------------------------|
E |-----------------------------------------------------------|

Same chords as previous chorus.

This way I'll always be for you
And to know you now will see me through
(Away) you know I knew you there
I don't stay down for very long
You know they like to knock me down
But I don't stay down for very long
They tried to say their wayward song
But oh what a way I've found

End on G


----------------------
Enjoy this great song!

rykenn
Tap to rate this tab
# A B C D E F G H I J K L M N O P Q R S T U V W X Y Z