Guitaretab - guitar tabs
Song name
# A B C D E F G H I J K L M N O P Q R S T U V W X Y Z

Babyshambles - Ballad Of Grimaldi tab

-------------------------------------------------------------------------------
			     Ballad of Grimaldi  Babyshambles/Pete Doherty
-------------------------------------------------------------------------------
Tabbed by: DirdyDawg
Email: Raven.rockitt@googlemail.com

Ok, so this is not the full tab because Im just trying to correct the run of the verse
already been tabbed  refer to the others for the rest of the tune. For the verses, this
the 100% correct version  there are a few versions on UG that dont quite have the
bass alternations - but Im sure this is correct. Let me know if this has been any use.

Bass alternates with stabs of Am, Em, B7 and Em.
Alternating notes are:

A-E-C-F-B-E-G-C-B-B-B-B-E-Riff

Tuning: Standard Eadgbe

Chords:

Am, Em, B7, Em*riff   (Em* = Riff after one stab on Em)
[ Tab from: http://www.guitaretab.com/b/babyshambles/67707.html ]
   Am                       Em                      B7           Em*
e|-----------------------------------------------------1-1-1-1-------------|
B|-----1-----1-----1-----1-----0-----0-----0-----0-----x-x-x-x-------------|
G|-----2-----2-----2-----2-----0-----0-----0-----0-----2-2-2-2---0---------|
D|-----2--2--2-----2--3--2-----2--2--2-----2-----2-----1-1-1-1---2---------|
A|--0-----------3-----------2--2-----2-----2--3-----2--2-2-2-2---2---------|
E|--------------------------------------3----------------------------------|

    Riff after Em*
e|-------------------------------------------------------------------------|
B|-------------------------------------------------------------------------|
G|-------------------------------------------------------------------------|
D|--2-0--------------------------------------------------------------------|
A|-------2-0---------------------------------------------------------------|
E|------------3p0-3p0------------------------------------------------------|

Enjoy.
Tabbed by DirdyDawg

| /  slide up
| \  slide down
| h  hammer-on
| p  pull-off
| ~  vibrato
| +  harmonic
| x  Mute note
===============================================================================
Related for Ballad Of Grimaldi tab