Song name
# A B C D E F G H I J K L M N O P Q R S T U V W X Y Z

Babyshambles - Back From The Dead Acoustic tab

			Back from the dead (acoustic)

Intro
     Bm             A*               Em       Em*      ?        F#m
e|---2-2-2-2-2-2-2--2-2-2-2-2-5-2-2--3-3-3-3--2-2-2-2--2-2-2-2--2-2-2-2-|
b|---3-2-3-5-3-2-3--3-3-2-3-5-3-2-3--5-5-5-5--5-5-5-5--0-0-0-0--2-2-2-2-|
g|---4-4-4-2-4-4-4--2-2-2-2-2-2-2-2--4-4-4-4--4-4-4-4--0-0-0-0--2-2-2-2-|
D|---4-4-4-4-4-4-4--4-4-4-4-4-4-4-4--5-5-5-5--5-5-5-5--0-0-0-0--4-4-4-4-|
A|---2-2-2-2-2-2-2--0-0-0-0-0-0-0-0--------------------0-0-0-0--4-4-4-4-|
E|--------------------------------------------------------------2-2-2-2-|



e|-----------------0----------|
a|--2//5---3-2-0-0---3-2------|
b|-----------------------2-2--|
G|----------------------------|


(Play the chords all the way through)

even if you were alright
go on put your arms around me mate
and you hear an honest remark and,

i heard it said you had come back from the dead
you were paying it so fine, scouping up the soul of the wine
courage my boy when you looked them in the eye
try not to look to scummy, if you need some money now you need some money,
now oh.................

he didnt like my voice but,
was a hell of a year for you me my friend and i,
promises promises, youv'e heard them all before
love is... just around the corner,

Breakdown

e|--2-2--2---------|       |---9---12--9---10--|
b|--3-3--3---------|       |---10--13--10--11--|
g|--4-4--4---------| play  |---11--14--11--12--|
D|--4-2ho4---------| twice |---11--14--11--12--|
A|--2-2--2-5-4-2-0-|       |---9---12--9---10--|
E|-----------------|       |-------------------|

but nobody ever ever has to now

(back to original chords)
this aint no happy place to be,
theres nothing nice about me, nothing nice around me almoest everyone agrees,
courage when you looked them in the eye,
try not to look real fun mate
Tap to rate this tab
 
# A B C D E F G H I J K L M N O P Q R S T U V W X Y Z