Song name
# A B C D E F G H I J K L M N O P Q R S T U V W X Y Z

Babyshambles - Loyalty Song tab

Help us improve GuitareTab! Take a short survey!
intro
e---------------------------------------------------------------|
B---------------------------------------------------------------|
G---------------------------------------------------------------|
D---------------------------------------------------------------|
A--2-0-2--2-0-2------9-7-9--9-7-9--7-5-7--7-5-7--7-5-7--7-5-7---|
E-3------3-----(3)/10-----10------8------8------8------8------8-|


e---------------------------------------------------------------|
B---------------------------------------------------------------|
G---------------------------------------------------------------|
D---------------------------------------------------------------|
A--2-0-2--2-0-2------9-7-9--9-7-9--7-5-7--7-5-7--7-5-7--7-5-7---|
E-3------3-----(3)/10-----10------8------8------8------8------8-|

if anyone knows the rest tab it x
Related for Loyalty Song tab