Guitaretab - guitar tabs
Song name
# A B C D E F G H I J K L M N O P Q R S T U V W X Y Z

Babyshambles - Down In Albion tab

IT TOOK ages but its finally up

you turn your back upon her once to many times
spend all your hard earned money, i just wanna get high


Artist: Babyshambles
Album: Down in Albion

1.  La Belle Et Las Bete
2.  Fuck Forever
3.  A'rebours
4.  The 32nd Of December
5.  Pipedown
6.  Sticks And Stones
7.  Kilamangiro
8.  8 Dead Boys
9.  In Love With A Feeling
10. Pentonville (Rough)
11. What Katy Did Next
12. Albion
13. Back From The Dead
14. Loyalty Song (What Did I Dream)
15. Up The Morning
16. Merry Go Round






				1. La Belle Et Las Bete


RIFF

e|-----------------------------------------------------------------| 
b|-----------------------------------------------------------------|
G|-----------------------------------------------------------------|
D|------------------------------------4-3-4/5-4-3-4---4-3-4/5-4-3-4|
A|---4-3-4/5-4-3-4---4-3-4/5-4-3-4--2---------------2--------------|
E|-2---------------2-----------------------------------------------|

VERSE
F#m
I tell you a story but you won't listen,
Its about a nightmere steeped in tradition,
Bm
Its a story of a coked up pansy,                 
Who spends his nights at a flight of fancy

Verse 2

Met two fellas over gin and mixers,
They talked for a while and soon got the picture,
One was a suped up soho mincer,
The other was a pikey with a knowledge of scripture,

Am                           Fm
Then the conversation turned evil (evil)
Am                                 Fm
Talked and talked and talked about people
What did you do to so many people?

MAIN RIFF

F#m
Stumbled let out of the boozer
three short shots to the leg ah whos a fusileer
Bm
Oh i've seen it in another light                 
With a half ton smile and was looking all right


Bm C Bm C

Bm                C
   That girls are way ahead of the game
Bm C          
   Way ahead of the game
Bm C
   Way ahead of the game

PRE-CHORUS

Bm                 G    F#      Bm           G F#
   You turned your back upon her one too many times
Bm               G F#              Bm           G F#
   Spent all her hard earned money just getting high
   She sang

CHORUS
        E   E    C      B
D|--------------0---2-----------------|
A|0h2-2-2--4----------4---------------|
E|------------------------------------|
     Is she more beautiful x3


A|--0h2--|   e|--8-----7
   Than Me?  b|--8-----7
             G|--9-----8

Bm C Bm C

Verse chords and again only one verse

Pre-chorus

Bm                 G    F#       Bm           G F#
   You turned your back upon her one too many times
Bm               G F#              Bm           G F#
   Spent all her hard earned money just getting high
   She sang

CHORUS

Main Riff

Then Bm C Bm C

Then 

D|----44--3--4-|
A|-2-----------|
  Bom dada da da

Back to the riff

first verse again- thats with 2 verses.

Bm             C
   That girls way ahead of the game
Bm C          
   Way ahead of the game
Bm C
   Way ahead of the game

PRE-CHORUS

Bm                 G     F#      Bm           G F#
   You turned your back upon her once too many times
Bm               G F#              Bm           G F#
   Spent all her hard earned money just getting high
   She sang

CHORUS till the end.



				2. Fuck Forever

Intro:
  
   Bb               A   
e|-----------------X----------X-X-XXXXXXXX----|
b|-33333333-3333333X2222222222X-X-XXXXXXXX----|
G|-33333333-3333333X2222222222X-X-XXXXXXXX----|
D|-33333333-3333333X2222222222X-X-XXXXXXXX----|
A|-11111111-1111111X0000000000X-X-XXXXXXXX----|
E|-----------------X----------X-X-XXXXXXXX----|


(one guitar plays this, the other plays the chords)

   Bm     G      D      F#
e|------------------------------|
b|--3-3---12-12----7-7---10-10--|
G|------------------------------|
D|--0-0----9--9----4-4----7--7--|
A|------------------------------|
E|------------------------------|


What Im saying, what i'm saying...
(You can also fingerpick this)
   
    D    C    Bm
e|------------2--------2---0--2---|
B|--7----5----3--------3---1--3---|
G|--7----5----4----or--2---0--4---|
D|--7----5----4--------0---2--4---|
A|--5----3----2------------3--2---|
E|--------------------------------|

So what's the use between death and glory?
 
    A7
e|------------------------|
B|--8-8-8-8-8-7-5-7-------|
G|--6-6-6-6-6-6-6-6-------|
D|--5-5-5-5-5-5-5-5---x2--|
A|--7-7-7-7-7-7-7-7-------|
E|--5-5-5-5-5-5-5-5-------|

Happy endings, no, they never bore me

        Em
e|------7-7-7-7-7-7-7-7--------------------|
B|------8-8-8-8-8-8-8-8--------------------|
G|------9-9-9-9-9-9-9-9--------------------|
D|------9-9-9-9-9-9-9-9--------------------|
A|--5h7-7-7-7-7-7-7-7-7----5ho7-7b-po5-----|
E|-----------------------------------------|

They, they have a way

    A7 (Variants - Using little finger to change)
e|-------------------------------|
B|--8-8-8-8-8-7-5-7--------------|
G|--6-6-6-6-6-6-6-6--------------|
D|--5-5-5-5-5-5-5-5----2x--------|
A|--7-7-7-7-7-7-7-7--------------|
E|--5-5-5-5-5-5-5-5--------------|

And to make you toe the...

    A7
e|-------------------------9--|
B|--555555555555555--------10-|
G|--666666666666666--or----9--|
D|--555555555555555--pick-----|
A|--777777777777777-----------|
E|--555555555555555-----------|

...line

   Bm  G   D   F#
e|-22---------9-9------------------------------22-XX------XX----XX-9---------|
B|-33/1212\77/1010-----------------------------33-XX-1212-XX-77-XX-10--------|
G|-44/1212\77/1111---Play 7 Times, 8th time: --44-XX-1212-XX-77-XX-11--------|
D|-44/1212\77/1111-----------------------------44-XX-1212-XX-77-XX-11--------|
A|-22/1010\55/9-9------------------------------22-XX-1010-XX-55-XX-9---------|
E|------------------------------------------------XX------XX----XX-----------|

What's the use between death and glory?

e|----------------------------------|
B|--8-8-8-8-8-7-5-7-----------------|
G|--6-6-6-6-6-6-6-6-----------------|
D|--5-5-5-5-5-5-5-5----Play 2 Times-|
A|--7-7-7-7-7-7-7-7-----------------|
E|--5-5-5-5-5-5-5-5-----------------|

New Labour and Tory

        Em
e|------7-7-7-7-7-7-7-7----------------|
b|------8-8-8-8-8-8-8-8----------------|
G|------9-9-9-9-9-9-9-9----Play 2 Times|
D|------9-9-9-9-9-9-9-9----------------|
A|--5h7-7-7-7-7-7-7-7-7----------------|
E|-------------------------------------|



All and the same
    D    C    Bm
e|------------2-------|
B|--7----5----3-------|
G|--7----5----4--x2---|
D|--7----5----4-------|
A|--5----3----2-------|
E|--------------------|

Tell you about that way

    A7
e|--------------------9-----9----------|
b|--5-5-5-5-5-5-----10-10-10-----------|
G|--6-6-6-6-6-6----9-----9-------------|
D|--5-5-5-5-5-5------------------------|
A|--7-7-7-7-7-7------------------------|
E|--5-5-5-5-5-5------------------------|

And the way they make you toe the
    A7
e|---------------------9--9--9--9--9---|
B|--555555555555555----10-10-10-10-10--|
G|--666666666666666----9--9--9--9--9---|
D|--555555555555555--------------------|
A|--777777777777777--------------------|
E|--555555555555555--------------------|

line
  Bm  G   D   F#m
e|-22---------9-9-------------2-3-7-2--|
b|-33/1212\77/1010------------3-3-7-2--|
G|-44/1212\77/1111---or-Play--4-4-7-2--|
D|-44/1212\77/1111------------4-5-7-4--|
A|-22/1010\55/9-9-------------2-5-5-4--|
E|------------------------------3---2--|

So fuck forever

            Bm  G   D   F#m
e|----------22---------9-9-------------------------22XX----XX--XX9-9-----|
B|----------33/1212\77/1010------------------------33XX1212XX77XX1010----|
G|----------44/1212\77/1111---Play 3x---4th time---44XX1212XX77XX1111----|
D|----------44/1212\77/1111------------------------44XX1212XX77XX1111----|
A|----------22/1010\55/9-9-------------------------22XX1010XX55XX9-9-----|
E|---------------------------------------------------XX----XX--XX--------|


Fill in between the chord changes

e|-------------| between  |-------------|  |----------------|
b|-------------| the      |---2--22222--|  |----------------|
G|----2-4po2---| pause >  |---4b-4b666--|  |----------------|
D|---4------4--| when pete|-------------|  |------2ho4po2---|
A|-------------| says fuck|-------------|  |--2ho4-------4--|
E|-------------|  forever |-------------|  |----------------|



Solo:

e|------------------------------------------------------------------|
B|---------------------10-8---------- 10--------------10-8----------|
G|-----------------/11------11--------------------11-------11-------|
D|---/12~~--11-9-11------------11/12~----11-9-11--------------12----|
A|------------------------------------------------------------------|
E|------------------------------------------------------------------|

Oh.. they have a way

    A7
e|---------------|
B|--5-5-5-5-5-5--|
G|--6-6-6-6-6-6--|
D|--5-5-5-5-5-5--|
A|--7-7-7-7-7-7--|
E|--5-5-5-5-5-5--|

And a way to make you toe the...

    A7
e|-----------------------9--9----|
B|--555555555555555------10-10---|
G|--666666666666666------9--9----|
D|--555555555555555--------------|
A|--777777777777777--------------|
E|--555555555555555--------------|

...line

   Bm  G   D   F#
e|-2-2--3-3----9-9---|
B|-3-3--3-3-77-1010--|
G|-4-4--4-4-77-1111--|
D|-4-4--5-5-77-1111--|
A|-2-2--5-5--5-9-9---|
E|------3-3----------|

They'll never play this on the radio

e|-----------------|
b|---7~~~~~~~~~----|
G|---9b11~~~~~~~---| Repeat this bend
D|-----------------| however many times
A|-----------------|
E|-----------------|




			3. Are'bours

INTRO

e|-0-0-0-0-0--2-3-2-0-------------|
B|-0-0-0-0-0--3-3-3-0-----4-5--7--|
G|-1-0-1-0-1--2-2-2-0-----4-5--7--|
D|-1-0-2-0-2--0-0-0-0-x3--4-5--7--|
A|-2-0-2-0-2--------------2-3--5--|
E|-0-0-0-0-0----------------------|

E|-12-11-7-5-4-----12-11-7-5-2--3---|
B|--9--9-9-5-5------9--9-9-5-4--5---|
G|----------------------------------|
D|----------------------------------|
A|----------------------------------|
E|----------------------------------|

C#m   B   C#m   B
You sent for me
      A                    E          B
I was knock knock knocking on death's door
    C#m     B         C#m      B
You ignore, adore, and a'rebour me
A                      E           B
You leave me washed up begging for more
       B     C#m   Ebm  B
If you really cared for me
C#m            G#m
Ah you'd let me be
C#m          G#m
You'd set me free
         G   F#
But what you robbed me of is my
B             C       D
Poor me, is my liberty

C#m   B   C#m   B
The curtain was calling
A       E          B
Blew away and die boy
C#m   B   C#m   B
In the mirror bawling
       A                               B
If you want it so much you can have it all
       B     C#m   Ebm  B
If you really cared for me
       C#m               G#m
Christ knows she'd let me be
C#m          G#m
You'd set me free
        F#             B C  D
I'm too polite to say...
F#m    E   B
I defy you all
         E                A
You know twice as much as nothing at all
           A       Bb B           
It's still nothing at all
F#m                  E   B
Ah, you can't define us all
    E                        A
The Tides are now turned and hammered it all
A          Bb B
Hammered it all



Intro (over this)
Ah, no, ah no, ah no Arebours...





Electric (played above acoustic chords below)
     E   G#m           F#m    B   C       E      G#m    F#m    B   C  C#m C    E    A B
e|------4-------------2--------------|x-x-----x-x----------------------4----3--------0-2-|
b|--9---4-------------2-------4---5--|x-x9--9-x-x-4--4---2--2---4-4s5---5-5----12-12-2-4-|
G|--9---4-4--4ho6--4--2-side-4-4-5-5-|x-x-9--9x-x--4--4---2--2--4-4s5-----5---12-12--2-4-|
D|--9-----4ho6----6------------------|x-x-----x-x------------------------------------2-4-|
A|-----------------------------------|x-------x--------------------------------------0-2-|
E|-----------------------------------|x-------x-----------------------------------------|



E                                       G#m
We've been running round this world too much, girl
           F#m
Pretending not to see
       B                C
What's thrilling me, is killing me
   E
Oh no, I think I understand
               G#m
What I misunderstood before
                       F#
How your love gives me so much more
     B                 C
I am free again, I can see again..
    C#m             C
But if, if I should fall
          E
Would you vow today to pay tomorrow
    A                  B
The fuck off big debt I owe to sorrow...

Intro



Solo
                                    PH
e|-----------------------------------------------------------------------15-15-15-15-14--|
b|-//9-9-10po9---9-9-10po9---s12-12-15b----9-9-10po9---9-9-10po9---s12-12----------------|
G|-/9-9---------9-9---------s13-13--------9-9---------9-9---------s13-13-----------------|
D|---------------------------------------------------------------------------------------|
A|---------------------------------------------------------------------------------------|
E|---------------------------------------------------------------------------------------|

e|-14-14-14-16-16-16-18-18-18--21-21-21-21-s12-12po9-12po7-5-21-21-21-21-s12-12-9-12-7-5-|
b|---------------------------------------------------------------------------------------|
G|---------------------------------------------------------------------------------------|
D|---------------------------------------------------------------------------------------|
A|---------------------------------------------------------------------------------------|
E|---------------------------------------------------------------------------------------|




				4. The 32nd of December

intro

Keyboard plays C and G 4 times

then guitar comes in and does

e|-------8-7-5-3--5po3--|
b|----------------------|
G|-4-5-9----------------|
D|-5-5-9----------------|
A|-5-3-7----------------|
E|-3-3-7----------------|


verse
G  C GC       G      C   G  C
Speak i don't talk about it
G  C G C             G         C   G C
Speak don't want to know all about it
Em                     C   D
Arguing with you's no good
Em                 C               D
You'll be nobody's fool but you'll almost speak...
G  C GC       g      C   g 
Speak i don't talk about it
 
chorus
             Em       Bm       Am
Don't talk about the 32nd of December
              Bm        D                    Em
Oh, thats the night I'm trying so hard to forget
                  Bm                     Am
All you do is you come around and i remember
        C              C#       D
Remeber what I try, oh that I, what I.... 

verse

Still you don't talk about it
Still don't wanna know all about it 
Anybody want tea?
Anybody, thank you, ah fuck me
But don't speak 
And don't talk about it 

chorus

Don't talk about the 32nd of December
Thats the night im trying so hard to forget
So all you do is you phone me, and I remember
Remember what I try, that I, what I... 

verse
Still you don't talk about it

Breakdown

Em
Well it was you not i
Am
It was such a stickler for manners
Em
So don't you say goodbye
Am
No, not to a good old friend,
     Em        Am
Ah goodbye, goodbye goodbye
Em         Am         C#    D#
I get by, please 
I get by 
And get by 
Argggh, so what you running from?



verse
Still,don't talk about it
Still, don't want to know about it 
Ah if they ask me nicely nicely then i'll go
Em
But they never do
        Am
So i'll never...



Breakdown

e|-------------------------------------------------------|
b|-------------------------------------------------------|
G|------------------------------2~~2-------4~~4po2po0----|
D|-----2~~2--------2~~2----------------------------------|
A|----------------------------0------0-0-2---------------|
E|---0-------0-0-0------0-0-0----------------------------|






			5.PipeDown

Riff

e|--0-0-0-0-7-7-7-7-0---0---0---0--------0---0---0---0---0---0---0-----0------|
b|-s5-5-5-5-5-5-5-5-2-2-2-2-3-3-3-3-----s5-5-5-5-7-7-7-7-8-8-8-8-10-10-10-10--|
G|----------------------------------x3----------------------------------------|
D|----------------------------------------------------------------------------|
A|----------------------------------------------------------------------------|
E|----------------------------------------------------------------------------|

Chorus
                 E         C   A
oh paddy put the pipe down
                    E            C   A
if you got the right sound
               E          C   A
if isn't not alright son
      E       C    A
oh la-lie, oh my

Verse

e|-7-7/8\7-7/8\7-7/8\7-7/8\7-----------------------|
b|-5-5/6\5-5/6\5-5/6\5-5/6\5-5-----5-----3333-3333-|
G|---------------------------4h5p4-4h5p4-2222-3333-|
D|-------------------------------------------------|
A|-------------------------------------------------|
E|-------------------------------------------------|

e|-7-7/8\7-7/8\7-7/8\7-7/8\7-5-6-|
b|-5-5/6\5-5/6\5-5/6\5-5/6\5-5-6-|
G|---------------------------6-7-|
D|---------------------------7-8-|
A|---------------------------7-8-|
E|---------------------------5-6-|

Chorus


Verse 2

e|-7-7/8\7-7/8\7-7/8\7-7/8/7-5-5-3-5--5-5-3-5--5-5-3-5-66666666-|
B|-5-5/6\5-5/6\5-5/6\5-5/6/5-5-5-3-5--5-5-3-5--7-7-5-7-88888888-|
G|---------------------------6-6-4-6--6-6-4-6--7-7-5-7-88888888-|
D|---------------------------7-7-5-7--7-7-5-7--7-7-5-7-88888888-|
A|---------------------------7-7-5-7--7-7-5-7--5-5-3-5-66666666-|
E|---------------------------5-5-3-5--5-5-3-5-------------------|


CHORUS

RIFF
la la-la la-la lalalala-la

CHORUS x2


end
e|-7h8p7-|
b|-------|
G|-------|
D|-------|
A|-------|
E|-------|



Do your sums 
Work out a fairer way 
If it comes undone 
Just paper over the cracks 
And there ain't no turning back 

Oh on The Sun 
They make you out to be a tearaway 
Comes undone 
Ahh I just spoke to matt 
pat,they want the money back 

Ah put the pipe down 
If you got the right sound 
If it's the right sound 
Oh my, oh my 

Do your sums 
Work out a fairer way 
Can you play no fun 
Oh what you think of that 
Cause they wanted but... 

You better pipe down 
You got the right sound 
Put the pipe down 
Oh my, oh my, oh my 

Na na-na na-na...

		`	6. Sticks and stones




Bm        G
Theres a tale
E           F#
Tale I will tell
Bm                 G
Blood lust after oh cups of tea
       E                  F#
And a many, many things I do so well
C        D              G
Oh you know that's the end
            B                
That's the end so far away down


use Variations of these chords
e|---3--7--12---2--7--
b|---5--8--12---3--7--
G|---4--9--12---4--7--
D|---5--9-------4--9--
A|------7-------2--9--
E|-----------------7--


They said that I was as good as dead
And there was hope, but not for us together
My friend, my only friend

C            D                   G
Oh well you know that that's the end
                B               
And that's the end so far away down

Skip... fame on the run
Don't look back into the motherfucking sun, no
C            D                    G
Oh well you know that that's the end
                B
And that's the end so far away down

Sticks and stones
May break my bones
Oh but your words
They really kill me

Sticks and sto-o-o-o-ones
May break my bo-o-o-o-ones
Sticks and stones may break my bones
Oh but your words they really hurt me

C              D               G
And there you know that's the end
               B
But there can never be and end

Interlude 1               
e|--12~~-----||-----------------------7------------------------10-10-10-8-7---|
b|------12~~-||-7ho8po7ho8.../10/8po7----7ho8po7ho8.../10/8po7----------------|
G|-----------||---------------------------------------------------------------|
D|-----------||---------------------------------------------------------------|
A|-----------||---------------------------------------------------------------|
E|-----------||--------------------------------------------------------------7|

e|--12~---12----15---12ho15po12...--------------------------------------------|
b|--12~-----12---------------------12ho15po12...------------------------------|
G|--12~-------12---------------------------------12-14-12---------------12----|
D|--14~---------------------------------------------------14-12-------14--12--|
A|-------------------------------------------------------------14-12-12----14-|
E|------------------------------------------------------------------15------12|
                                                       Freestyle over these notee
                                                       till the end
OUTRO (And somewhere in the middle too)
e|---------------------------------------------------|
B|---------------------------------------------------|
G|--------------------4-4-4---9-10-9-----------------|
D|--------------------4-4-4----------10-9------------|
A|-7-7-7/5-5-5/3-3/2--2-2-2----------------10-9--7---|
E|---------------------------------------------------|


The Whistle 	`		Lower key for verses   

e|---15------------------14-||----3--------------2---||--2ho3po2ho3po2ho3po2--|
b|-----17--------------15---||------5----------3-----|
G|-------16---14-16-16------||--------4--2-4-4-------|  this is played at the end
D|--------------------------||-----------------------|  of "the Whistle"
A|--------------------------||-----------------------|
E|--------------------------||-----------------------|



				7.Killamangiro




Intro (After drum beat)

e|-15/17-17-17-17/15-15-15-15/12-12-12-12/10-10-|
b|-15/17-17-17-17/15-15-15-15/12-12-12-12/10-10-|
G|----------------------------------------------|
D|----------------------------------------------|
A|----------------------------------------------|
E|----------------------------------------------|

e|-----------------------------------------|
b|-3-3-3-3---4-4-4-4---5-5-5-5---7-7-777---|
G|-4-4-4-4---4-4-4-4---5-5-5-5-0-7-7-777-0-|
D|-5-5-5-5-0-4-4-4-4-0-5-5-5-5-0-7-7-777-0-|
A|-5-5-5-5-0-2-2-2-2-0-3-3-3-3-0-5-5-555-0-|
E|-3-3-3-3-0---------0---------0---------0-|

e|-3--3-3-3-3---2--2-2-2-2---0--0-0-0-0---2--2-2-2-2---|
b|-3--3-3-3-3---0--0-0-0-0---3--3-3-3-3---3--3-3-3-3---|
G|-0--0-0-0-0---2--2-2-2-2---0--0-0-0-0---2--2-2-2-2---|
D|-0--0-0-0-0---1--1-1-1-1---2--2-2-2-2---0--0-0-0-0---|
A|-2--2-2-2-2---2--2-2-2-2---3--3-3-3-3----------------|
E|-3--3-3-3-3------------------------------------------|



Verse 1

e|-3~------3-3-3-3-3~--------0~-----0--0--------0-0--0-------|
b|-3~------3-3-3-3-3~------0-3~----3--3-3-------3-3--3-------|
G|-0~------0-0-0-0-0~------0-0~------0---0------0-0--0-------| x2
D|-0~------0-0-0-0-0~------0-2~-----------------2-2--2-------|
A|-2~------2-2-2-2-2~------0-3~-----------------3-3--3-------|
E|-3~------3-3-3-3-3~----------------------------------------|

e|--3~---3---3---3-----------7-----12------12------12--------|
b|--3~----3---3---3----------8-------13--13-----13---13------|
G|--0~-----0---0---3---------9---------12----12--------12----|
D|--0~-----------------------10------------------------------|
A|--2~-------------------------------------------------------|
E|--3~-------------------------------------------------------|


Pre-Chorus
   Em                   B            
e|------------------------------------------|
b|-8-------8---8--------7------------7--7---|
G|---9------9-----9-------8-----------8--8--|
D|-----9-----9------9-------9---------------|
A|------------------------------------------|
E|------------------------------------------|

e|-----------------------11-10-8------------|
b|-8----8----------8-------------9----------|
G|--9------9---------8----------------------|
D|---10----------------10-------------------|
A|-
E|-

Chorus x2

e|-3-3-3-3---------------------------------|
b|-3-3-3-3---4-4-4-4---5-5-5-5---7-7-777---|
G|-4-4-4-4---4-4-4-4---5-5-5-5---7-7-777---|
D|-5-5-5-5-0-4-4-4-4-0-5-5-5-5-0-7-7-777-0-|
A|-5-5-5-5-0-2-2-2-2-0-3-3-3-3-0-5-5-555-0-|
E|-3-3-3-3-0---------0---------0---------0-|

e|-3--3-3-3-3---2--2-2-2-2---0--0-0-0-0---2--2-2-2-2---|
b|-3--3-3-3-3---0--0-0-0-0---3--3-3-3-3---3--3-3-3-3---|
G|-0--0-0-0-0---2--2-2-2-2---0--0-0-0-0---2--2-2-2-2---|
D|-0--0-0-0-0---1--1-1-1-1---2--2-2-2-2---0--0-0-0-0---|
A|-2--2-2-2-2---2--2-2-2-2---3--3-3-3-3----------------|
E|-3--3-3-3-3------------------------------------------|

Verse 2

e|-3-3----------7~----------------3-3-3---3-------7~~--|
b|-3-3----------8~----------------3-3--3---3------8~~--|
G|-4-4----------9~----------------4-4---4---4-----9~~--|
D|-5-5----------10~---------------5-5------------------| Played a few 
A|-5-5----------------------------5-5------------------| times
E|-----------------------------------------------------|





Breakdown


e|-3~------------------------------------|
b|-3~------------------------------------|
G|-4~-----5-4-2-0~~--------17-16-14-12~~-|
D|-5~------------------------------------|
A|-5~------------------------------------|
E|-3~------------------------------------|


continue to solo on the bottom frets

ends with

e|-------7---9b~~~~~-|
b|---8-10------------|
g|--9----------------|
d|-------------------|
a|-------------------|
e|-------------------|


final PRECHORUS
e|---/17-19--17-19b20-17-19--------|
B|---------------------------------| 
G|---------------------------------|
D|---------------------------------|
A|---------------------------------|
E|---------------------------------|


				8. 8 Dead Boys


e|---------------2--1--------------------|
b|---2-----------4--1----------7-7-7-7---|
g|---2-----------2--2----------7-7-7-7---| x2
D|---2-----------4--3----------7-7-7-7---|
A|---0--2-3-2-0--2--3----------5-5-5-5---|
E|------------------1--3-5-3-1-----------|

e|----------------------------------------------------------|
b|----------------------------------------------------------|
G|---9-9-11-11b---12-12-14-14b------------------------------|
D|-------------------------------12-12-14-14b---------------|
A|---------------------------------------------15-14-15-14--|
E|----------------------------------------------------------|

                     Chorus

      You look better now than last time 
e|---x-5-5-x-5-5------------1----------3-3---|
b|---x-6-6-x-6-6--6-5-------1---1------3-3---|
G|---x-7-7-x-7-7------7-5---2-2-2-2-2--4-4---|
D|---x-7-7-x-7-7----------5-3-3-3-3-3--5-5---|
A|---x-5-5-x-5-5------------3-3-3-3-3--5-5---|
E|--------------------------1-1-1-0-1--3-3---|


[ Tab from: http://www.guitaretab.com/b/babyshambles/71299.html ]
     But you're still no better than before 
e|---5---------------------------------------|
b|---6------------6-5------------------------|
G|---7----------------7-5--------------------|
D|---7--------------------5------------------|
A|---5----------------------8-8-8-7-8--10----|
E|-------------------------------------------|
 

   The life that you wanted was not in store 
    You're being the dark horse again 
e|---10-10---10--8--7-5-3-|------------------|    |---------------------|
b|----10-10--10--10-9-6-5-|-10-10-10---12----|    |---------------------|
G|-----10-10-10--10-9-7-5-|-10-10-10---12----| or |-10-9-10-10//12~~~~--|
D|------------------------|-10-10-10---12----|    |---------------------|
A|------------------------|-8--8--8----10----|    |---------------------|
E|------------------------|------------------|    |---------------------|

A			C
Sit right down cause you're a friend
G			D 
You know there ain't too many left of them 
         A       C     G         F(E|-1po0-|)
You said I want love, I want it all 

Dm                    F        G
You look better now than last time 
But you still look better from afar 
The life that you wanted was not in store 
You're being the dark horse again 

Hello, Hello 
Hello, My Love (x3) 

Stop your moaning and I'll give you a taster 
They give you and line and they call you a waster 
Give you a line, oh what a waster 
So don't! 
You say you will or you won't 
Do or you don't (x3) 

Cause you look better now than the last time 
But you're still no better than before 
The life that you wanted wasn't in store 
You're being the dark horse again 

Hello, Hello 
Hello, My Love (x3) 

A                                    C
When it suits you, you're a friend of mine (x15) 

Cause you look better now than the last time 
But you're still no better than before 
The life that you wanted wasn't in store 
You're being the dark horse again 

Cause you look better now than the last time 
But you're still no better than before 
The life that you wanted wasn't in store 
You're being the dark horse again





				9. In Love With A Feeling


intro

e|-3-3----------------3--3----|
b|-1--1---1-----------1-1---1-|
G|-0---0--1-1-3h-3p1------0-1-|
D|-2----2-2----------2------2-|
A|-3------3-----------------3-|
E|----------------------------|


   They would if they could, but they can't
e|-3----------------------------------------|
b|-1----------------------------------------|
G|-0----------------------------------------|
D|-2----------------------------------------|
A|-3----------------------------------------|
E|------------------------------------------|

So if they talk like they could
e|----------------------5--5----|
b|----------------------5ho6----|
G|----------------------5ho7----} Dm
D|----------------------5ho7----|
A|----------------------5--5----|
E|------------------------------|
  Are you going to heed a word they say,All I'm trying to say was
e|-----------------3-3-----3-3/5-5/3-----|
b|----------------3--------3-3/5-5/3-----|
G|---5ho7po5--5--------------------------}G
D|-5ho7---7po5---------------------------|
A|---------------------------------------|
E|---------------------------------------|

  I'm in love with a feeling
e|--/8---8------------5------|
b|---/8--8------------5------|
G|----/9-9-----8----7-6------|
D|-/10---10----9----8-7------|
A|-------------9----8-7------|
E|-------------7----6-5------|
  I know that it shows
e|-5--------------5----5-5-5--4-3-3-|
b|-5--------------6----6-6-6--5-5-3-|
G|-6--------------7----7-7-7--4-5-4-|
D|-7--------------7----7-7-7--6-5-5-|
A|-7--------------------------4-3-5-|
E|-5------------------------------3-|
Yes I'm in love with a feeling
e|---3---3--3----2----1---------|
b|---3---3--3----2----1---------|
G|---4---4--4----3----2-1-------|
D|---5---5--5----2----1-2-------|
A|---5---5--5----4----3-2-------|
E|---------------2----1-0-------|
 And I don't care who knows
e|--------------------5-----|
b|--------------------5-----|
G|--------------------6-----|
D|--------------------5-----|
A|--------------------7-----|
E|--------------------5-----|


Chorus
e|-0-7-10-|
b|--------|
G|--------|

e|-3-4-|
b|-3-4-|
G|-4-5-|
D|-5-6-|
A|-5-6-|
E|-3-4-|

then it is just back to the verse which is very much the same as the last verse.
after the chorus just before the bridge it is just the chord change C to G.

the bridge

I'm still waiting for you to show me fire
e|---------------------0-----------------|
b|---------------------1-----------------|
g|---------------------0-----------------|
d|---------------------2-----------------|
a|---------------------3-----------------|
e|---------------------------------------|
  Oh how's your fever
e|-0-------------------1-|
b|-1-------------------1-|
G|-1-------------------2-|
D|-2-------------------3-|
A|-3-------------------3-|
E|---------------------1-|
 Like an open book,Oh you can read me
e|-----------------1-----------------|
b|-----------------1-----------------|
G|-----------------1-----------------|
D|-----------------3-----------------|
A|-----------------3-----------------|
E|-----------------1-----------------|

the rest is 2 chords:
e|-0-0-|
b|-1-1-|
g|-0-1-|
d|-2-2-|
a|---3-|
e|-----|

End

Because of his hob knob
e|---------------------|
b|-2-------------------|
G|-3-------------------|
D|-4-------------------|
A|-4-------------------|
E|---------------------|
 Ohh la la, I think love was a dirty word
e|---------------------|
b|-2-------------------|
G|-3-------------------|
D|-4-------------------|
A|-4-------------------|
E|---------------------|
 Love all the time
e|---------------------|
b|-2-------------------|
G|-3-------------------|
D|-4-------------------|
A|-4-------------------|
E|---------------------|
Only in a friendly way
e|---------------------|
b|-2-------------------|
G|-3-------------------|
D|-4-------------------|
A|-4-------------------|
E|---------------------|
  Not too friendly, not too friendly
e|-1-----------------0----------------|
b|-1-----------------2----------------|
G|-2-------1---------2----------------|
D|-1-------2---------2----------------|
A|-3-------2---------0----------------|
E|-1-------0--------------------------|



			10. Pentonville




D     C           Bm           A             \
Indian, Chinaman down from Vietnam            \
And all the people from the Carribbean         \
English, scottish and irish man                 | Freestyle over
We just come together and sing this a one      /   dont play the
cal man and woman, black and white,           /    actual chords
Banned to survival have to put up a fight, so/


F#m
So A wing, B wing, C wing and G Wing 
Come help us sing 
A wing, B wing, C wing and G Wing 
Come help us sing

again
F#m
So A wing, B wing, C wing and G Wing 
Come help us sing 
A wing, B wing, C wing and G Wing 
Come help us sing

with me

Bm
They're rough 
in Pentonville, tough 
get rough
Wicked and tough 
Yeah rough 
Pentonville tough 
It's rough
Wicked and rough now 

Bm         A
Everyday, it's the same
Bm         A 
People can't get better
Bm         A 
No they can't get tamed 
Bm                            A
And black up the heads of the sick and the lame 
Bm                            A
all the same who can't get retained
Bm                            A
Some men jump out of their brains 
Bm                            A
Cause they can't take the pressure 
Bm               A
and can't take the pain 
Bm                            A
When they see the life, it go down the drain 
Bm                            E
In Pentonville it's a different ball game 


Bm
It's rough             |
Pentonville tough      |
It's rough             |
Wicked and tough        \ this part freestyles on Bm
Yeah rough              /
Pentonville tough      |
It's hard              |
Wicked and rough now   |


F#m
So A wing, B wing, C wing and G Wing 
Come help us sing 
A wing, B wing, C wing and G Wing 
Come help us sing


Bm
It's rough 
Pentonville tough 
It's hard 
Wicked and rough 
Yeah rough 
Pentonville tough 
It's hard 
Wicked and rough now 


Bm                            A
this is this the libertist, santy
Bm                            A
me off me head (e) alot featuring Pete Doherty
Bm                            A
in the pentonville the say they coud look ghouly
Bm                            A
Them the youth now say they touch our free weed
Bm                            A
heres the capt now, with boot he learn
Bm                            A
born the youth now rerasta the route,
Bm                            A
born the youth with a jazzy route
Bm                    E
am a rasta re-route now


Bm
It's rough 
Pentonville tough 
It's hard 
Wicked and rough 
Yeah rough 
Pentonville tough 
It's hard 
Wicked and rough now 

Bm                            A
this is this the libertist, santy
Bm                            A
me off me head (e) alot featuring Pete Doherty
Bm                            A
in the pentonville the say they coud look ghouly
Bm                            A
Them the youth now say they touch our free weed

Pete sings
Bm                            A
(well nothing to see but a poxy celebrity)
Bm                            A
(a man without a care is just who you wanna be)
Bm                            A
(They stand away as they lock him in a cage,)
Bm                            E
(they got your body but they cant get your mind,)

Bm
Get Rough
(fighting for the rough tough love, get rough)
Pentonvie tough


Everyday, it's the same 
People can't get better 
No they can't get tamed 
And black up the heads of the sick and the lame 
Some men jump out of their brains 
Cause they can't take the pressure 
Cant take the pain 
When they see the life, it go down the drain 
In Pentonville it's a different ball game 

So A wing, B wing, C wing and G Wing 
Come help us sing 
A wing, B wing, C wing and G Wing 
Come help us sing 

Because it's rough 
Pentonville tough 
It's hard 
Wicked and rough 
Yeah tough 
Pentonville rough 
It's hard 
Wicked and rough


Chorus Freestyle

e|--7----------------------------|
b|--7----------------------------|
g|--7-----7---7-9-9b-9po7---7----|
d|--9-9-9-7-9-7-9-9b-9po7-9-7-9--|
a|--9-9-9---9-------------9---9--|
e|--7-7--------------------------|

			11. What Katy did Next


Verse

F         C              Dm
  There's a lesson I have learnt
Bb      A          Dm   G            C
  If you play with fire you will get burnt 
F       C               Dm
           Hell hath no fury 
Bb     A     Dm  
  Like woman scorned
            G
  I'll tell you my story
                                        
  Make you wish you never, wish you
  C
  Wish you never never, wish you never been born 

Fm            Cm           Fm   Cm
  I may never learn, you never know
Fm               Cm              Fm    Cm Bm Bmb 
  I may live and learn you never know 
                  Cm
  I may crash and burn, oh no 
Bmb             A
  I may take my turn 

  D      A              Bm           A    Bm  A
  If you love her, then tell her you love her and 
  D            A            Bm        A    Bm  A
   You could be kissing her soon 
  D      A             Bm           A    Bm  A
  If you need her, oh, tell her you need her and 
  D            A            Bm        A    Bm  A
   You won't be missing her soon 
  G
  Oh, but for a love to be true 
  Bm               B
  It must come from her too



				12. Albion


e|---3-3-3-3-3-3-3-3-3-0-0-0-0-1ho0-0ho1-0-0--0-3-3-3--3-3-|
b|---1-1-1-1-1-1-1-1-1-1-0-1-1-3--3-3--3-1-1--1-3-3-3--3-3-|
g|---0-0-0-0-0-ho2-2-2-2-2-2-2-2--2-0ho2-2-0ho2-0-0-0--0-0-|
D|-------2-2-2-ho3-3-3-3-3-3-3-0--0-0--0-2-0ho2-0-0-0--0-0-|
A|--3----3-3-3---------------------------0-0--0-2-2-0ho2-2-|
E|----------------------------------------------3-3-3--3-3-|

Chords for verse

     C   F   G
e|---0---0---3---|
b|---1---1---3---|
g|---0---2---0---|
D|---2---3---0---|
A|---3-------2---|
E|-----------3---|

to play the part after intro pull off with your first finger
on the b string.


C
Down in Albion
F
they're black and blue
C			G
but we dont talk about that
C
are you from round here
F
how do you do?
C			G
i'd like to talk about that

talk over,

C
gin and teacups and
F
leaves on the lawn. 
C
Violence at bus stops,
G
and a pale thin girl with eyes for long,
C
OH gin and teacups and
F
leaves on the lawn.
C
Violence in dole queue's
G
and a pale thin girl behind the check out

		F
but if you're looking for a cheap sort
C		G
thatís in false anticipation
	F				C		g
i'll be waiting in the photo booth at the underground station
C              F
so, come away, wont you come away
           G
we could go to,
G (hammer on with A 2nd fret)
Deptford, Catford, Watford, Digbeth, Mansfield


Anywhere in Albion
(back to the intro twice)


C
yellowing classics and
F
canons at dawn
C
coffee wallows and pith helmets 
G
and an English sun
C
Reebok classics and
F
canons at dawn
C
terimer wallows, good wallows 
G
and oh that English sun


F			C
but if you're looking for a cheap tarts
G
glint with perspiration
F		   C				    G
theres a four mile queue outside the dissused power station
F	      C			
oh come away, oh say you'll come away
G
we'll go to
G (hammer on the 2nd fret on the A string)
Sathed, Senford, Wolfard, wimble, Newcastle


F			C
but if you're looking for a cheap tarts
G
glint with perspiration
F		   C				    G
theres a four mile queue outside the dissused power station
F	      C			
oh come away, oh say you'll come away

We'll go to

Bedstown, Oldham, Nutville, Walden, Bristol

Anywhere in the Albion
(Intro)



				13. Back From The Dead


Intro
     Bm             A*               Em       Em*      ?        F#m
e|---2-2-2-2-2-2-2--2-2-2-2-2-5-2-2--3-3-3-3--2-2-2-2--2-0-2-0--2-2-2-2-|
b|---3-2-3-5-3-2-3--3-3-2-3-5-3-2-3--5-5-5-5--5-5-5-5--0-0-0-0--2-2-2-2-|
g|---4-4-4-2-4-4-4--2-2-2-2-2-2-2-2--4-4-4-4--4-4-4-4--0-0-0-0--2-2-2-2-|
D|---4-4-4-4-4-4-4--4-4-4-4-4-4-4-4--5-5-5-5--5-5-5-5--0-0-0-0--4-4-4-4-|
A|---2-2-2-2-2-2-2--0-0-0-0-0-0-0-0--------------------0-0-0-0--4-4-4-4-|
E|--------------------------------------------------------------2-2-2-2-|



e|-----------------0----------|
b|--2//5---3-2-0-0---3-2------|
G|-----------------------2-2--|
D|----------------------------|

I heard it said 
You had come back from the dead 
You were playing so fine 
Scooping up the soul of the wine 
Now courage my boy 
When they look you in the eye 
Try not to look too scummy 
If you need some money 
And you want their money 

Now I know... 
This ain't no happy place to be 
You know they're nice around me 
You know they're nice about me 
And everyone agrees 

About what's won in a year from here, my friend 
Promises, promises... 
You've heard it all before 

But nobody ever 
Ever get me more... 

e|--2-2--2---------|       |---9---12--9---10--|
b|--3-3--3---------|       |---10--13--10--11--|
g|--4-4--4---------| play  |---11--14--11--12--|
D|--4-2ho4---------| twice |---11--14--11--12--|
A|--2-2--2-5-4-2-0-|	   |---9---12--9---10--|
E|-----------------|       |-------------------|

Oh yes courage my boy 
When you look them in the eye 
That they laugh if they try to be funny 

All along... 
Belong 
You're still my son 
And coin my words 
Oh it's absurd how you get so 
Very old, man 
Typical tan 
Took me in hand 
To ... 

... hour 
Banged or bruised




				14. The Loyalty Song



   Intro

e|--x--x------|
b|--x--x--3---|
G|--x--x--0---|
D|--x--x--0---|
A|--x-----2---|
E|--x---------|

G   D   C    X4


Riffs played over the verses
e|--3--3-3--3-2-0---------------------|
b|----------------0ho1-1-1-1po0-------|
G|------------------------------2po0--|
D|------------------------------------|
A|------------------------------------|
E|------------------------------------|

e|------------10----8---------------x-10--8---8---8--|
b|--/12-12-----10--8-8-8---/12-12-x-x-10--8----8-8---|
G|--/12--12--11----9--9-9--/12-12-x-x-11--9-----9----|
D|--/12--------------------/12-12-x------------------|
A|---------------------------------------------------|
E|---------------------------------------------------|



Ah, tell me 
G          D
What did I dream? 
      C
Cause nothing's as it seems 
          G        D     C
On the way back down, for me 

G          D
What did I dream? 
      C
Cause nothing's as it seems 
       G        D      C
On the way back round, for me 

C                    
Nothing's gonna keep me from my 
G
What did I dream? 
C
No one's gonna keep me from my 
G        D  C 
What did I dream? 
   
G   D    C 

             G        D
We're on the one road 
C
Maybe the wrong road 
         G       D    C      
It's the road to fuck knows where 
          G        D
We're on the one road 
C
Maybe the wrong road 
            G      D        C
But we're together now so I don't care 

C
Nothing's gonna keep me from my 
G
What did I dream? 
C
No one's gonna keep me from my 
Bmb
No one'll fucking keep me from my 
C
No one's gonna keep me from my 
G        D  C
What did I dream? 

G        D  C
What did I dream? 

   
         G                B
And if I confide in you today 
           E               C      B      A
I know you don't believe a single word I say 
                      D
I found solace in the flood 
    G              F#   F E 
And everybody knew that I would 
          A
Cause I'm alright 
             D#                 D#              D
And there's a slight crack in my chimney 


So tell me 
G          D
What did I dream?                    (x2) 
C
Nothing's as it seems 
       G        D     C    
On the way back round for me 

G    D   C         (x6)

G    D   C
What did I? (x3) 
   
What did I dream?


				15. Up The Morning


					INTRO



				 Hammer-ons
INTRO (on acoustic)       	(Played fast)
e|------5-5-4-0--5-4-0-0-----0-----0-0-----0-----3------3-----0----2---3-3---5-5---|
b|------3-3-3-3--3-3-3-3-----1-----1-1-----1-----3----3-3-3---0----2---3-3---5-5---|
G|------2-2-2-2--2-2-2-2-----2-----2-2-----2-----0----2-2-2---0----2---4-4---6-6---|
D|---0--0-0-0-0--0-0-0-0-----2-0h1h2-2-0h1h2-----0----0-0-0--2-----4---5-5---7-7---|
A|-------------------------0-0-----0-0-----0-----2-----------2-----4---5-5---7-7---|
E|-----------------------------------------------3--2-2-2-2--0--0-2----3-3---5-5---|

Intro(Electric)
e|---------------------------------------------------------------------------------|
b|---------------------------------------------------------------------------------|
G|---------------------------------------------------------------------------------|
D|---------------------------------------------------------------------------------|
A|---------------------------------------------------------------------------------|
E|-----------------------------------------------------------0-----2---3-----5-----|




				Build up / Chorus



Build Up (Acoustic-varies between open chords)

Acoustic part is just D then Dm

		
Build up (Electric-may just be root notes at first but builds to this)
    D
e|--------------------------------------------------|
b|--------------------------------------------------|
G|--------------------------------------------------|
D|--7-7-7-7--9-9-9-9--10-10-10-10--12-12-12-12------|
A|--7-7-7-7--9-9-9-9--10-10-10-10--12-12-12-12------|
E|--5-5-5-5--7-7-7-7--8--8--8--8---10-10-10-10------|

    Dm      
e|--------------------------------------------------|
b|--------------------------------------------------|
G|--9-9-9-9--11-11-11-11--12-12-12-12--14-14-14-14--|
D|--9-9-9-9--11-11-11-11--12-12-12-12--14-14-14-14--|
A|--7-7-7-7--9--9--9--9---10-10-10-10--12-12-12-12--|
E|--0-0-0-0--0--0--0--0---0--0--0--0---0--0--0--0---|








			SOLO BREAK


Acoustic (during the solo Breaks)

E then A

Electric
e|--------------------------------------------------|
b|--------------------------------------------------|
G|---77777--99999---11-11-11-11-9-7-66666666--------|
D|--------------------------------------------------|
A|--------------------------------------------------|
E|--------------------------------------------------|

e|--------------------------------------------------|
b|---------8-7---------7-8-10-8//10/12/10/8-7-------|
G|-----7ho9---9-7----/9-9-9--9-9--------------7-----|
D|--------------------------------------------------|
A|--------------------------------------------------|
E|---0----------------------------------------------|



				VERSE 1

"Everytime I see your face"

Electric   
    D                 F#m*
e|----------------------2------------------------|
b|----------------------2------------------------|
G|--7-------------------3------------------------|
D|----------------------2------------------------|
A|----------------------4------------------------|
E|----------------------2------------------------|

"makes me sad, it makes me trace places i go so"
               Em
e|-------------0~~------------------------|
b|-------------0~~------------------------|
G|-------------0~~------------2////4-4----|
D|-------------2~~------------------------|
A|-------------2~~------------------------|
E|-------------0~~------------------------|

"Not to the landlords taste i know
      E     F#     G       A
e|-------------------------------|
b|-------------------------------|
G|-------------------------------|
D|-----2-----4------5-------7----|
A|----2-2---4-4---5--5----7---7--|
E|---0-----2-----3------5--------|

Verse 2

e|---2----------------3~--2---0----2--3--5--|
b|---2----------------3~--2---0----2--3--5--|
G|---3----------------4~--3---0----3--4--6--|
D|---2-----2h4p2------5~--2---2----4--5--7--|
A|---4--2h4-----4p2---5~--4---2----4--5--7--|
E|---2--------------3-3~--2--0--0-2---3--5--|


Then Returns to the Build up/Chorus

Solo Break 2

e|------------------------------------------------|
b|---8-8-8po7-----------7h8p7h8p7-----------------|
G|-----------7-9------------------7h9p7h9p7----7--|
D|----------------7~~~-----------------------9----|
A|----------------7~~~----------------------------|
E|----------------0~~~----------------------------|

e|---8~~8~~8~~8~~8~~8~~8~~~-------------8//10~~~~~|
b|---10~10~10~10~10~10~10~~--10/12\10-7-----------|
G|------------------------------------------------|
D|------------------------------------------------|
A|------------------------------------------------|
E|------------------------------------------------|



The correct chords thanks to N. SAMUEL

D                        Dm
Up the morning, up, up the morning x 5

E5                       A5      E5                       A5
           Ohhh_______              Ohhh_______

E5                     A5        Em         F#m      G*
           Ohhh_______       Ohh____________


D                                 C#
Everytime I see your face
                                            F#m           G*
It makes me sigh____, and makes me trace
                  F#m                   Em
My shadows___ in blood on wall
               F#m                G*         A
(Not to the land-lord's taste I know)


D                           C#
     But I see your face
                           C#7       F#m
It makes me cry____, Al- Ways

G*      Gmaj7     E5      f#5   G5    A5
Ooh   ooh         ohh     ah    ah     ah


D                                C#m
      And if I, if I could go
C#                   C#7
      Back in time
D                                C#
      And if I, if I could go
          F#m
Back in time___ I would
G                                          A      Asus4            G
go to show, were I did not show

A    Asus4                  F#m                         G             Gsus4
                    Oh____     What was i supposed to do?
F#m                                G           A
     What's a boy supposed to, supposed to do?
D                         Dm
Up the morning, up, up the morning
D                         Dm
Up the morning, up, up the morning
D                         Dm
Up the morning, up, up the morning
D                         Dm
Up the morning, up, up the morning
D                         Dm
Up the morning, up, up the morning






16. MERRY-GO-ROUND0


INTRO RIFF


e|--5--5-5-7-6-5---5--5-5-7-6-5-7-6-5-|
b|--5--5-5-5-5-5---5--5-5-5-5-5-5-5-5-| (x2)
g|--6--6-6-6-6-6---6--6-6-6-6-6-6-6-6-|

Chords

     D*   D**  Am*  Am   E    A   A7
e|---10---9----7----5----0----0---3---|
b|---7----7----5----5----0----2---2---|
G|---7----7----5----5----1----2---2---|
D|-----------------------2----2---2---|
A|-----------------------2----0---0---|
E|-----------------------0------------|

VERSE 1

              D*                   D**
You have always been thinking of her
Am*                                             Am
You're in love and you don't know what to say
Am*                                             Am
But I saw her at the fair, she feels the same way
            E                               A 
She was married by the merry-go-round

Back to Intro riff


VERSE 2 (same chords)

The merry-go-round
How merrily we go round
How merrily we go round

The merry-go-round (ENDS WITH A7 x02223)
NEW CHORDS HERE:

D (xx0232)
A7sus4? (x02030)
F (133211)
A7 (002020)

D            A7sus4           D
He was the first one of the day
                 A7sus4           D
He was the last one of the night
                A7sus4           D
Oh hold me tight, hold me tight

D              A7sus4             D
They said you were wrongened
               A7sus4            D
But I can see in your eyes
                   A7sus4       D
How you are gentle and wise
                         F
And you had the good stuff
                      A7                 D        A7sus4    D   A7sus4
Oh there's a parade of girls outside

F                  A7
That boy's so shy
                             D       A7sus4     D      A7sus4
Why'd you punch out his lights?



[I don't have the lyrics for the next bit]

SOME NEW CHORDS

D (xx0232)
Dmaj7 (xx0222)
D7 (xx0212)
G (320033
G/b (200033)
E (022100)
A7 (x02223)
Dmaj7sus? (000223)

D
You should get some
Dmaj7
Sun on your face
D7
we've been sitting like an
G               G/b        E
lord in the bath for days
            A
Its getting sold and
                          D      Dmaj7sus
I don't even know you


D                            Dmaj7
We get away with doing the little that we can
D7              G       G/b       
We mustn't take it too far my friend
E						A7
The Albion needs every man woman and child she can get her hands on
----------------------------------------------------------------------------

Tabbed by Heethmo
E@mail me @ thats_intuition@hotmail.com


Related for Down In Albion tab