Song name
# A B C D E F G H I J K L M N O P Q R S T U V W X Y Z

Babyshambles - Beg Steal Or Borrow tab

Help us improve GuitareTab! Take a short survey!
This is the tab to the solo of "Beg, Steal Or Borrow" as played by Doherty on Jonathon Ross...


INTRO

E-----10----12-10-8-7---------7---7-7-7-7-----7----8-8-8-8-8-10-8-------|
B--12----12-----------8---------8-7-7-7-7----------8-8-8-8-8------------|
G--0--------------------9-7-------7-7-7-7-7--------9-9-9-9-9------------|
D---------------------------9---------------9---10----------------------|
A-------------------------9---------------------------------------------|
E-----------------------------------------------------------------------|
 
E-12----11----12----12-14----14-15-14-12----12-------|
B----10----10----10-------10-------------12----12----|
G----------------------------------------------------|  C major, D major
D----------------------------------------------------|   
A----------------------------------------------------|
E----------------------------------------------------|
 
2nd SOLO (after "and i wont be bound to...")

E-----10----12-10-8-7---7---7-7-7-7---7-7-7-7---7-7-7-7-|
B--12----12-----------8-----7-7-7-7---8-8-8-8---8-8-8-8-|
G--0------------------------7-7-7-7---9-9-9-9---9-9-9-9-|  C major, D major
D---------------------------9-9-9-9---9-9-9-9---9-9-9-9-|
A---------------------------9-9-9-9-7-7-7-7-7---7-7-7-7-|
E-------------------------7-7-7-7-7---7-7-7-7-7-7-7-7-7-|

Related for Beg Steal Or Borrow tab