Song name
# A B C D E F G H I J K L M N O P Q R S T U V W X Y Z

Babyshambles - Un Stookie Titled tab

-------------------------------------------------------------------------------
			     Un Stookie Titled - Babyshambles
-------------------------------------------------------------------------------
Tabbed by: Nighters123
Email: Nighters_91@hotmail.co.uk

Tuning:

e|---------------------------------------------------------------------------|
B|---3-3-3-3-2-3-7-7-7-7-3-3-12-12-12-12-7-7-7-10-10-10-10-7-7-7-------------|
G|---2-2-2-2-2-2-7-7-7-7-2-2-11-11-11-11-7-7-7-9--9--9--9--7-7-7----X3-------|
D|---------------------------------------------------------------------------|
A|---3-3-3-3-2-3-7-7-7-7-3-3-12-12-12-12-7-7-7-10-10-10-10-7-7-7-8-8-8-7-8-8-|
E|---2-2-2-2-2-3-7-7-7-7-2-2-11-11-11-11-7-7-7-9--9--9--9--7-7-7-7-7-7-7-7-7-|

e|-8-7-8-8-8-8-7-7-7-3-------------------------------------------------------------------|
B|-7-7-7-7-7-7-7-7-7-2-------------------------------------------------------------------|
G|---------------------------------------------------------------------------------------|
D|---------------------------------------------------------------------------------------|
A|---------------------------------------------------------------------------------------|
E|---------------------------------------------------------------------------------------|

Intro to Un Stookie Titled, although its played throughout most of the song.
Tap to rate this tab
# A B C D E F G H I J K L M N O P Q R S T U V W X Y Z