Song name
# A B C D E F G H I J K L M N O P Q R S T U V W X Y Z

Babyshambles - Fuck Forever Acoustic tab

Help us improve GuitareTab! Take a short survey!
-------------------------------------------------------------------------------
			     Fuck Forever (Acoustic) - Babyshambles/Pete Doherty
-------------------------------------------------------------------------------
Tabbed by: Joe Smith
Email: smith_joe90@hotmail.com
Tuning: Standard eBGDAE

The one he's playing in the field. Video can be found here http://www.youtube.com/watch?v=zH8K8mPtyXQ
To get the full idea of the rhythm and everything listen to the song.

Intro - I think it sounds better when you slide the chords on the last one, so on the 
12 10 chord slide to 7 5. Just mess around with it.
Listen and watch what he's doing and you'll get what i'm saying.
E|-------------------------------------------------------------------------------------------|
B|--12---12---12---7---7---7--10--10--10--3---3---3---12---12---12---7---7---7--10--10--10---|
G|-------------------------------------------------------------------------------------------|
D|-------------------------------------------------------------------------------------------|
A|--10---10---10---5---5---5---9---9---9---2---2---2---10---10---10---5---5---5---9---9---9--|
E|-------------------------------------------------------------------------------------------|

For the first chord i like to push it forward, if you listen to the youtube video 
you can hear it. (Push it forward as in not on the beat, unusual but sounds good)
E|--5-5-5-5-5--3-3-3-3-3-3-3--2-2-2-2-2-2-2-2-2-2-2-2-2-2-2--|
B|--7-7-7-7-7--5-5-5-5-5-5-5--3-3-3-3-3-3-3-3-3-3-3-3-3-3-3--|
G|--7-7-7-7-7--5-5-5-5-5-5-5--4-4-4-4-4-4-4-4-4-4-4-4-4-4-4--|
D|--7-7-7-7-7--5-5-5-5-5-5-5--4-4-4-4-4-4-4-4-4-4-4-4-4-4-4--|
A|--5-5-5-5-5--3-3-3-3-3-3-3--2-2-2-2-2-2-2-2-2-2-2-2-2-2-2--|
E|-----------------------------------------------------------|

Verse - for the normal 7 0 part i like to occasionally play the last part of the verse 
well, whatever sounds good to you. Watch the video for guidance.
                   x2                x2
E|-------------------|-----------------|-----------------------------------|
B|-------------------|-----------------|--8-8-8-8-8-8-8-8---8---7---5---7--|
G|-------------------|-----------------|-----------------------------------|
D|--7-7-7-7-7-7-7-7--|--5-5-5-5-5-5-5--|--7-7-7-7-7-7-7-7---7---7---7---7--|
A|--0-0-0-0-0-0-0-0--|--7-7-7-7-7-7-7--|--0-0-0-0-0-0-0-0---0---0---0---0--|
E|-------------------|--0-0-0-0-0-0-0--|-----------------------------------|

Chorus
E|--2-2-2--3-3-3-3--2-2-2--2-2-2-2--|
B|--3-3-3--0-0-0-0--3-3-3--2-2-2-2--|
G|--4-4-4--0-0-0-0--2-2-2--2-2-2-2--|
D|--4-4-4--0-0-0-0---------4-4-4-4--|
A|--2-2-2--2-2-2-2---------4-4-4-4--|
E|--2-2-2--3-3-3-3---------2-2-2-2--|

Middle 8 (bit before the 2nd verse)
E|--2-2-2-2--0-0-0-0--2-2-2-2-2-2-2--|
B|--3-3-3-3--1-1-1-1--3-3-3-3-3-3-3--|
G|--2-2-2-2--0-0-0-0--4-4-4-4-4-4-4--|
D|-----------2-2-2-2--4-4-4-4-4-4-4--|
A|-----------3-3-3-3--2-2-2-2-2-2-2--|
E|-----------------------------------|

Outro (repeat intro twice)
E|---------------------------------------------------------------------------------------------------------|
B|--7----7----5----5----3----3--2--3-----3----3----3----7---10---10---10-----7------12----12----12------7--|
G|---------------------------------------------------------------------------------------------------------|
D|---------------------------------------------------------------------------------------------------------|
A|--5----5----3----3----3-----------------2----2----2----5----9----9----9------5----10----10----10------5--|
E|---------------------------------------------------------------------------------------------------------|

At the end he messes up on several chords, so from what you hear he picks the  7 7 10 
he's trying to do the chords. Also at the end he does chords i can't make out because he 
them up i just finish on Bm.
E|-------------------------------------------------------------------------------------------2--|
B|--10---10--10--/--12---10----3-----3--2--3----7---7---10---x---10---12----10-----7----5----3--|
G|-------------------------------------------------------------------------------------------4--|
D|-------------------------------------------------------------------------------------------4--|
A|--9----9----9--/--10----9----2--------------------------------------10-----9-----5----3----2--|
E|----------------------------------------------------------------------------------------------|

So just mess around with this, this is the basic idea of what he's doing.
Rate it please, feel free to send me corrections
smith_joe90@hotmail.com
Related for Fuck Forever Acoustic tab