Guitaretab - guitar tabs
Song name
# A B C D E F G H I J K L M N O P Q R S T U V W X Y Z

Babyshambles - Lost In Paradise tab

e|---5--------5------5-----5-----------|
B|---6--------6------6-----5-----------|
G|---5--------5------5-----5-----------|
D|---7--------5------5-----5-----------|
A|---8--------8------7-----7-----------|
E|---5--------5------5-----5-----------|

"You rolled a 4 you roll a 9 find yourself washed up in paradise"

e|---5--------5------5-----5-----------|
B|---6--------6------6-----5-----------|
G|---5--------5------5-----5-----------|
D|---7--------5------5-----5-----------|
A|---8--------8------7-----7-----------|
E|---5--------5------5-----5-----------|

"It's like before didn't seem to mind I lost my phone in paradise"

Bb7,C7,F x2
[ Tab from: http://www.guitaretab.com/b/babyshambles/92222.html ]
Dm                      Am
What a nice day for a murder
Gm                                             C
You call yourself a killer the only thing you killing
D        Dm                      Am
Is time there's nothing more absurbed a burdens a burden
Gm                             C              Dm
to your heart your soul your spirit and your mind

F
Don't look at me like that
A                       Bb,Bbm
She won't take you back
F
Get up off your back
A                 Bb,Bbm
Stop smoking that

e|---5--------5------5-----5-----------|
B|---6--------6------6-----5-----------|
G|---5--------5------5-----5-----------|
D|---7--------5------5-----5-----------|
A|---8--------8------7-----7-----------|
E|---5--------5------5-----5-----------|

etc
Its the same throughout remember pick a tiny bit in the chord sequence at the beginning 
go into strummming
Related for Lost In Paradise tab
Advertisement will be closed in 10 seconds