Song name
# A B C D E F G H I J K L M N O P Q R S T U V W X Y Z

Babyshambles - Unbilo Titled tab

Babyshambles - UnBilo Titled

It should all be good apart from the end of intro which gets a bit mental.

Intro

1--5--5-----5-----5-----5--------------------------------------------3--|
2--7--7--7--7--7--7--7--7--3--5-5--3--5--3---------5--5--5--5-----5--3--|
3--7--7-----7-----5-----7-----5-5-----5------5--2--5--5--5--5--2--5--4--|
4--------------------------------------------------------------------5--|
5--------------------------------------------------------------------5--|
6--------------------------------------------------------------------3--|


1----------------------2--2—h3--5-2-2-2-2-2-0-0-0-0------0--------0----------|
2----------------------3----------------------------------------------1------|
3----------------------2---------------------------5-h2-2--5-h2—2-----0------|
4----0--h2--0----0--2-------------------------------------------------2------|
5---------------------------------------------------------------------3------|
6--3--------------3----------------------------------------------------------|

Verse

1--2--------2--2-------3-2-------5---3-----------3----------------------|
2--3--3-----------3---------3--------4--4----4---3-3--------------------|
3--2-----2-----------2---------2-----4----4------4----4-----------------|
4------------------------------------4------4----5-------5--------------|         x2
5------------------------------------3-----------5----------------------|
6------------------------------------3-----------3----------------------|

Chorus

   G                                    D                         C

1----------------------------------------5--3--2-----3--2----------------------|
2--------------------------------------------------5---------5--2--------------|
3------------------------------------------------------------------------------|
4---------------------------------------------------------------------------5--|
6------------------------------------------------------------------------------|

Random solo that’s played a couple of times

1---------------------------------------------------------------------------|
2---7--5--5--5--------------------------------------------------------------|
3-----------------7--7--5--5---5--------------------------------------------|
4----------------------------7----5-----------------------------------------|
5---------------------------------------------------------------------------|

Whistling bit - C

GINGE
Tap to rate this tab
# A B C D E F G H I J K L M N O P Q R S T U V W X Y Z